Spazz Tabs

Lets Fucking Go

1 versions

TAB

            SPAZZ - LET'S FUCKING GO!!!!

e|----------------------------|
B|----------------------------|
G|----------------------------|
D|-3-8-8-8-8-8-8-6--5-5-5-5-5-|
A|-3-8-8-8-8-8-8-4--3-5-5-5-5-|
D|-3-8-8-8-8-8-8------5-5-5-5-|

e|----------------------|
B|----------------------|
G|----------------------|
D|-3-8-8-8-8-8-8-6--5-5-|
A|-3-8-8-8-8-8-8-4--3-5-|
D|-3-8-8-8-8-8-8------5-|

Repeat

e|---------------------------------|
B|---------------------------------|
G|---------------------------------|
D|-3-3-8-8-8-8-8-8-6-6-5-5-5-5-5-5-| x4
A|-3-3-8-8-8-8-8-8-4-4-3-3-5-5-5-5-|
D|-3-3-8-8-8-8-8-8---------5-5-5-5-|

e|--------------|
B|--------------|
G|--------------|
D|-5------------|
A|-5-(Let ring)-|
D|-5------------|

e|-------------------------|
B|-------------------------|
G|-------------------------|
D|-8--4--3--7--3--2--1--1--|
A|-8--4--3--7--3--2--1--1--|
D|-8--4--3--7--3--2--1--1--|

e|-------------------------------|
B|-------------------------------|
G|-------------------------------|
D|-8-9-8-9-3-4-3-4-8-9-8-9-6-5-5-|
A|-8-9-8-9-3-4-3-4-8-9-8-9-4-3-5-|
D|-8-9-8-9-3-4-3-4-8-9-8-9-----5-|

e|-------------------------------------------|
B|-------------------------------------------|
G|-------------------------------------------|
D|-88-99-88-99-33-44-33-44-88-99-88-99-6-5-5-| x4
A|-88-99-88-99-33-44-33-44-88-99-88-99-4-3-5-|
D|-88-99-88-99-33-44-33-44-88-99-88-99-----5-|

e|----------------|
B|----------------|
G|----------------|
D|-3--3--3--------|
A|-3--3--3--------|
D|-3--3--3--------|    

Added On December 16th, 2013

SHARE

Comments

blog comments powered by Disqus

ADVERTISEMENT