Spirit Tabs

Thought I Had A Girl

1 versions

TAB

            Thought I Had A Girl Tab by Spirit


----------------------------------------------------------------------------
                   THOUGHT I HAD A GIRL - Spirit
----------------------------------------------------------------------------
Tabbed by: aflac
Email: Erik1911@verizon.net

Tuning: Standard

Intro

e|---7-10-8-7--5-8-6-5--2-5-3-2-------0h2-----------0h2----|
B|---8-8--8-8--6-6-6-6--3-3-3-3-----3-----3------3------3--|
G|------------------------------0h2----------0h2-----------| Repeat 4x
D|---------------------------------------------------------|
A|---------------------------------------------------------|
E|---------------------------------------------------------|

e|--10-9-8-10-3-3-3----|
B|--10-9-8-10-3-3-3----|
G|--------------0-0----|  Repeat 4x
D|--------------0-0----|
A|---------------------|
E|---------------------|

Verse 1

D                       C                     D
I thought I had a girl    I knew because I’ve seen her
D                          C                       D            C  D
Her hair was golden brown    Blowin’ free like the corn fields
D                 C                    D
She was far away    I found it hard to reach her
D                        C                        D
She told me you can try    But it’s impossible to find her


e|--10-9-8-10-3-3-3----|
B|--10-9-8-10-3-3-3----|
G|--------------0-0----|  Repeat 2x
D|--------------0-0----|
A|---------------------|
E|---------------------|

D C D C D            C                D
        In my dreams everything was alright
        D              C            D
  	In your schemes you can only try

Solo (Just repeat D,C,D,C etc…) 

Verse 2

e|--10-9-8-10-3-3-3----|
B|--10-9-8-10-3-3-3----|
G|--------------0-0----|  Repeat 4x
D|--------------0-0----|
A|---------------------|
E|---------------------|

D                       C                     D
I thought I had a girl    I knew because I’ve seen her
D                          C                       D           
Her hair was golden brown    Blowin’ free like the corn fields

Solo (Just repeat D,C,D,C until end)


h = hammer-on

============================================================================    

Added On December 12th, 2013

SHARE

Comments

blog comments powered by Disqus

ADVERTISEMENT