Spring Awakening Tabs

Dont Do Sadness

2 versions

TAB

            Don't Do Sadness as sung by Moritz in Spring Awakening

(For the intro just repeat the first chord 16 times)

Tuning: Standard

Verse 1
e|---------------------------------------------------------------------------|
B|---------------------------------------------------------------------------|
G|---------------------------------------------------------------------------|
D|-3-3-3-3-3-3-3-3-3-3-3-3-3-3-3-3--2-2-2-2-2-2-2-2-2-2-2-2-2-2-2-2----------|
A|-1-1-1-1-1-1-1-1-1-1-1-1-1-1-1-1--0-0-0-0-0-0-0-0-0-0-0-0-0-0-0-0----------|
E|---------------------------------------------------------------------------|

Awful Sweet, to be a little butterfly

e|---------------------------------------------------------------------------|
B|---------------------------------------------------------------------------|

G|---------------------------------------------------------------------------|
D|-3-3-3-3-3-3-3-3-3-3-3-3-3-3-3-3--2-2-2-2-2-2-2-2-2-2-2-2-2-2-2-2----------|
A|-1-1-1-1-1-1-1-1-1-1-1-1-1-1-1-1--0-0-0-0-0-0-0-0-0-0-0-0-0-0-0-0----------|
E|---------------------------------------------------------------------------|

Just winging over things, and nothing deep--in--side

e|---------------------------------------------------------------------------|
B|---------------------------------------------------------------------------|
G|---------------------------------------------------------------------------|
D|---------------------------------------------------------------------------|
A|-3-3-3-3-3-3-3-3-3-3-3-3-3-3-3-3--2-2-2-2-2-2-2-2-2-2-2-2-2-2-2-2----------|
E|-1-1-1-1-1-1-1-1-1-1-1-1-1-1-1-1--0-0-0-0-0-0-0-0-0-0-0-0-0-0-0-0----------|

Nothing goin', goin' wild in you, you know

e|---------------------------------------------------------------------------|
B|---------------------------------------------------------------------------|
G|---------------------------------------------------------------------------|
D|-5-5-5-5-5-5-5-5-5-5-5-5-5-5-5-5-------------------------------------------|
A|-3-3-3-3-3-3-3-3-3-3-3-3-3-3-3-3--3-3-3-3-3-3-3-3-3-3-3-3-3-3-3-3----------|
E|----------------------------------1-1-1-1-1-1-1-1-1-1-1-1-1-1-1-1----------|
You're slowing by the riverside or floatin' high and blue

Verse 2

e|---------------------------------------------------------------------------|
B|---------------------------------------------------------------------------|
G|---------------------------------------------------------------------------|
D|-3-3-3-3-3-3-3-3-3-3-3-3-3-3-3-3--2-2-2-2-2-2-2-2-2-2-2-2-2-2-2-2----------|
A|-1-1-1-1-1-1-1-1-1-1-1-1-1-1-1-1--0-0-0-0-0-0-0-0-0-0-0-0-0-0-0-0----------|
E|---------------------------------------------------------------------------|
Or may be, cool to be a little summer wind
e|---------------------------------------------------------------------------|
B|---------------------------------------------------------------------------|

G|---------------------------------------------------------------------------|
D|-3-3-3-3-3-3-3-3-3-3-3-3-3-3-3-3--2-2-2-2-2-2-2-2-2-2-2-2-2-2-2-2----------|
A|-1-1-1-1-1-1-1-1-1-1-1-1-1-1-1-1--0-0-0-0-0-0-0-0-0-0-0-0-0-0-0-0----------|
E|---------------------------------------------------------------------------|

Like once thru everything and then away again

e|---------------------------------------------------------------------------|
B|---------------------------------------------------------------------------|
G|---------------------------------------------------------------------------|
D|---------------------------------------------------------------------------|
A|-3-3-3-3-3-3-3-3-3-3-3-3-3-3-3-3--2-2-2-2-2-2-2-2-2-2-2-2-2-2-2-2----------|
E|-1-1-1-1-1-1-1-1-1-1-1-1-1-1-1-1--0-0-0-0-0-0-0-0-0-0-0-0-0-0-0-0----------|

With the taste of dust in your mouth all day but no need to know

e|---------------------------------------------------------------------------|
B|---------------------------------------------------------------------------|
G|---------------------------------------------------------------------------|
D|-5-5-5-5-5-5-5-5-5-5-5-5-5-5-5-5-------------------------------------------|
A|-3-3-3-3-3-3-3-3-3-3-3-3-3-3-3-3--3-3-3-3-3-3-3-3-3-3-3-3-3-3-3-3----------|
E|----------------------------------1-1-1-1-1-1-1-1-1-1-1-1-1-1-1-1----------|

Like sadness, you just...sail away


Chorus

e|---------------------------------------------------------------------------|
B|---------------------------------------------------------------------------|
G|---------------------------------------------------------------------------|
D|-2-2--2-2-2---------------5-5-5-5-5-5-5-5-5-5------------------------------|
A|-0-0--0-0-0-2--2----------3-3-3-3-3-3-3-3-3-3------------------------------|
E|------------0--0-----------------------------------------------------------|
  Cause you know  I don't do sadness, not even a 
e|---------------------------------------------------------------------------|
B|---------------------------------------------------------------------------|
G|---------------------------------------------------------------------------|
D|-3-3-3-3-3-3-3-3-3-3-3-3-3-3-3-3-------------------------------------------|
A|-1-1-1-1-1-1-1-1-1-1-1-1-1-1-1-1---3-3-3-3-3-3-3-3-3-----------------------|
E|-----------------------------------1-1-1-1-1-1-1-1-1-----------------------|
  Little Bit, I just don't need it in my life, Don't want any part of it

e|---------------------------------------------------------------------------|
B|---------------------------------------------------------------------------|
G|---------------------------------------------------------------------------|
D|-2-2--2-2-2---------------5-5-5-5-5-5-5-5-5-5------------------------------|
A|-0-0--0-0-0-2--2----------3-3-3-3-3-3-3-3-3-3------------------------------|
E|------------0--0-----------------------------------------------------------|
                   I don't do sadness
e|---------------------------------------------------------------------------|
B|---------------------------------------------------------------------------|
G|---------------------------------------------------------------------------|
D|-3-3-3-3-3-3-3-3-3-3-3-3-3-3-3-3-------------------------------------------|
A|-1-1-1-1-1-1-1-1-1-1-1-1-1-1-1-1---3-3-3-3-3-3-3-3-3-----------------------|
E|-----------------------------------1-1-1-1-1-1-1-1-1-----------------------|
  Hey, I've done my time looking back on it all and it blows my mind...

END (Let notes ring for 4 beats)
e|---------------------------------------------------------------------------|
B|---------------------------------------------------------------------------|
G|---------------------------------------------------------------------------|
D|-2-----5---------------------------------------------------------------------|
A|-0--2--3-3---------------------------------------------------------------------|
E|----0----1-------------------------------------------------------------------|
  I don't do sadness, so been there, don't do sadness, just don't...care..    

Added On December 16th, 2013

SHARE

Comments

blog comments powered by Disqus

VERSIONS

ADVERTISEMENT