SR-71 Tabs

In Your Eyes

2 versions

TAB

            In Your Eyes Tab by Sr-71


-------------------------------------------------------------------------------
			     In Your Eyes by SR-71
-------------------------------------------------------------------------------
Tabbed by: Ali Hong
Email: southparksaurez@gmail.com  The guitarist uses an effect at the beginning, but here's what he plays

e|------------------------------------------------------------|
B|-----2-----2--------2-----2-----2-----2---------------------|
G|------------------------------------------------------------|
D|-----------------------4-----4-----1------------------------|
A|--1-----1-----1--4------------------------------------------|
E|------------------------------------------------------------|

e|------------------------------------------------------------|
B|-----2-----2--------2-----2-----2---------------------------|
G|-----------------------------------6-6----------------------|
D|-----------------------4-----4-----6-6----------------------|
A|--1-----1-----1--4-----------------4-4----------------------|
E|------------------------------------------------------------|

Verse

e|------------------------------------------------------------|
B|-----2-----2--------2-----2-----2-----2---------------------|
G|------------------------------------------------------------|  Play
D|-----------------------4-----4-----1------------------------|   3x
A|--1-----1-----1--4------------------------------------------|
E|------------------------------------------------------------|

e|---------------------------------------------------------------------------|
B|-----2-----2--------2-----2-----2------------------------------------------|
G|-----------------------------------6-6-----------------------------6-6-----|
D|-----------------------4-----4-----6-6--8-8-8-8-8-8-8-8-8-8-8-8-8--6-6-----|
A|--1-----1-----1--4-----------------4-4--8-8-8-8-8-8-8-8-8-8-8-8-8--4-4-----|
E|----------------------------------------6-6-6-6-6-6-6-6-6-6-6-6-6----------|
                                          * * * * * * * * * * * * *

e|--------------------------------------------------------------------|
B|--------------------------------------------------------------------|
G|-----------------------------8-8-----------------------------6-6----|  Play
D|--4-4-4-4-4-4-4-4-4-4-4-4-4--8-8--8-8-8-8-8-8-8-8-8-8-8-8-8--6-6----|   3x
A|--4-4-4-4-4-4-4-4-4-4-4-4-4--6-6--8-8-8-8-8-8-8-8-8-8-8-8-8--4-4----|
E|--2-2-2-2-2-2-2-2-2-2-2-2-2-------6-6-6-6-6-6-6-6-6-6-6-6-6---------|
    * * * * * * * * * * * * *       * * * * * * * * * * * * *

e|--------------------------------------------------------------------|
B|--------------------------------------------------------------------|
G|--------------------------------------------------------------------|
D|--4-4-4-4-4-4-4-4-4-4-4-4-4-----------------------------------------|
A|--4-4-4-4-4-4-4-4-4-4-4-4-4-----------------------------------------|
E|--2-2-2-2-2-2-2-2-2-2-2-2-2-----------------------------------------|
    * * * * * * * * * * * * *

Prechorus Part 1 -> "But all my instincts..."

e|------------------------------------------------------------------------|
B|------------------------------------------------------------------------|
G|------------------------------------------------------------------------|
D|--6-6-6-6-6--X-X--4-4-4-4-4--X-X-X-X--6-6-6-6-6--X-X--4-4-4-4-4---------|
A|--6-6-6-6-6--X-X--4-4-4-4-4--X-X-X-X--6-6-6-6-6--X-X--4-4-4-4-4---3/4---|
E|--4-4-4-4-4--X-X--2-2-2-2-2--X-X-X-X--4-4-4-4-4--X-X--2-2-2-2-2---------|

Prechorus Part 2, Guitar 1 ->

e|---------------------------------------------------------------------------|
B|---------------------------------------------------------------------------|
G|---------------------------------------------------------------------------|
D|--6-6-6-6-6-6-6-6-6-6-6-6-6-6-6-6-4-4-4-4-4-4-4-4-4-4-4-4-4-4-4-4----------|
A|--6-6-6-6-6-6-6-6-6-6-6-6-6-6-6-6-4-4-4-4-4-4-4-4-4-4-4-4-4-4-4-4----------|
E|--4-4-4-4-4-4-4-4-4-4-4-4-4-4-4-4-2-2-2-2-2-2-2-2-2-2-2-2-2-2-2-2----------|
      * * * * * * * * * * * * * * *   * * * * * * * * * * * * * * *

e|---------------------------------------------------------------------------|
B|---------------------------------------------------------------------------|
G|---------------------------------------------------------------------------|
D|--6-6-6-6-6-6-6-6-6-6-6-6-6-6-6-6-4-4-4-4-4-4-4-4-4-4-4-4------------------|
A|--6-6-6-6-6-6-6-6-6-6-6-6-6-6-6-6-4-4-4-4-4-4-4-4-4-4-4-4------------------|
E|--4-4-4-4-4-4-4-4-4-4-4-4-4-4-4-4-2-2-2-2-2-2-2-2-2-2-2-2------------------|
      * * * * * * * * * * * * * * *   

Prechorus Part 2, Guitar 2 ->

e|---------------------------------------------------------------------------|
B|---------------------------------------------------------------------------|
G|---------------------------------------------------------------------------|
D|--------------------------------------------4-4-4-4-4-4-4-4-4-4-4-4--------|
A|--3/4-3-3-3/4---3/4-3-3-3/4---3/4-3-3-3/4---4-4-4-4-4-4-4-4-4-4-4-4--------|
E|--------------------------------------------2-2-2-2-2-2-2-2-2-2-2-2--------|

Chorus ->

e|---------------------------------------------------------------|
B|---------------------------------------------------------------|
G|--12-12-12-12-12-12-12-12-12-12-12-12-12-12-12-12--------------|
D|---------------------------------------------------------------|
A|--10-10-10-10-10-10-10-10-10-10-10-10-10-10-10-10--------------| \
E|---------------------------------------------------------------|  \
                                                                     > Play 6x
e|---------------------------------------------------------------|  /
B|---------------------------------------------------(16-16-16)--| /
G|--13-13-13-13-13-13-13-13-15-15-15-15-15-15-15-15--(15-15-15)--|
D|---------------------------------------------------(13-13-13)--|
A|--11-11-11-11-11-11-11-11-13-13-13-13-13-13-13-13------^^------|
E|-----------------------------------------------^^------^^------|
      Play this chord an extra time the 6th run  ^^      ^^ Play this the last
      through, but do it 3 frets lower and let              time only
      it ring

Verse ->

Prechorus ->

Chorus (2x) ->

Outro ->

e|---------------------------------------------------------------------------|
B|---------------------------------------------------------------------------|
G|--12-12-12-12-10-10-10-10-13-13-13-13-12-12-12-12-13-13-13-13-12-12-12-12--|
D|---------------------------------------------------------------------------|
A|--10-10-10-10--8--8--8--8-11-11-11-11-10-10-10-10-11-11-11-11-10-10-10-10--|
E|---------------------------------------------------------------------------|

e|---------------------------------------------------------------------------|
B|---------------------------------------------------------------------------|
G|--13-13-13-13-15-15-15-15--------------------------------------------------|
D|---------------------------------------------------------------------------|
A|--11-11-11-11-13-13-13-13--------------------------------------------------|
E|---------------------------------------------------------------------------|

Let the last chord ring


===============================================================================    

Added On December 12th, 2013

SHARE

Comments

blog comments powered by Disqus

VERSIONS

ADVERTISEMENT