Stabbing Westward Tabs

How Can I Hold On

1 versions

TAB

            How Can I Hold On Tab by Stabbing Westward


How Can I hold On by Stabbing Westward

Tabbed by Dave Bloom

mizar_alcor@yahoo.com


This is the best I can get this song so far. It isn't as goog of a tab
as my others, but I think with what I got hear, you should be able to
get the basic riff, if you have a suggestion go ahead and send, i wont
be offended. Once I figure it out more clearer I will post it.

Drop D Tuning...

D
A
D
G
B
e

The riff...

-------------------------------------------------------------------|
-------------------------------------------------------------------|
-------------------------------------------------------------------|
-------------------------------------------------------------------|
-----3/5-5-x-5-x-5-3/5-3-x-3-x-3-5-x-3-x-3-x-3-x-3-5-x-5-3-x-3-x-3-|
-0-0---------------------------------------------------------------|

-----------------------|
-----------------------|
-----------------------|
-----------------------|
-3-x-3-3---------------|
---------7-9-7-5-3-1-0-|


The lyrics...


  Back when you were my life

  You gave me something that I could live for

  Now everything's changed

  You're gone but I'm still here waiting


  How can i hold on with nothing to hold on to

  Why should I hold on

  When there's nothing to hold on to


  Sex made me feel alive but now i'm

  So bored with mindless passion

  Drugs were somewhere to hide but

  They left me feeling cold and empty


  How can I hold on

  With nothing to hold on to

  Why shoul    

Added On December 12th, 2013

SHARE

Comments

blog comments powered by Disqus

ADVERTISEMENT