State Champs Tabs

Mind Bottled

1 versions

TAB

            E-----------------------------------------------------------|
B-----------------------------------------------------------|
G---5---5-5---5-5---5-5---5-5-5---9-x---7-x---5---x-7-5-7---|
D---x---x-x---x-x---x-x---x-x-x---x-x---x-x---x---x-x-x-x---|
A---3---3-3---3-3---3-3---3-3-3---7-x---5-x---3---x-5-5-7---|
E-----------------------------------------------------------|

E-----------------------------------------------------------|
B-----------------------------------------------------------|
G---5---5-5---5-5---5-5---5-5-5---9-x---7-x---9---x-121212--|
D---x---x-x---x-x---x-x---x-x-x---x-x---x-x---x---x-x-x-x---|
A---3---3-3---3-3---3-3---3-3-3---7-x---5-x---7---x-101010--|
E-----------------------------------------------------------|

not 100% sure about the strumming pattern, and this is the only part of the song i could 
figure out.
its used in the intro and chorus. if anyone wants to tab out the rest of the song feel 
free to use this!    

Added On January 6th, 2014

SHARE

Comments

blog comments powered by Disqus

ADVERTISEMENT