Stephen Lynch Tabs

Dr Stephen

2 versions

TAB

            Dr Stephen Tab by Stephen Lynch


-------------------------------------------------------------------------------
			     Dr. Stephen - Stephen Lynch
-------------------------------------------------------------------------------
Tabbed by: Jared
This is officially my first tab submitted to this site.  The song is "Dr. Stephen" from
album "Superhero," which is entirely live, and absolutely hilarious.  I've tabbed the
as well as I could according to the way he plays it on that album, and I think it sounds 
accurate.  However, if anyone has any corrections, e-mail me and let me know.  Thanks!

Email: deacon112885@msn.com

Tuning:

e|---------------------------------------------------------------------------|
B|---------------------------------------------------------------------------|
G|------6-----6---6h7---6-----6---6h7---6-----6---6h7---6------7-6-----------|
D|------7-----7---7-----7-----7---7-----7-----7---7-----7----------8-7-------|
A|------7-----7---7-----7-----7---7-----7-----7---7-----7--------------8-----|
E|---------------------------------------------------------------------------|

e|---------------------------------------------------------------------------|
B|---------------------------------------------------------------------------|
G|------6-----6---6h7---6-----6---6h7---6-----6---6h7---6--------------6h7p6-|
D|------7-----7---7-----7-----7---7-----7-----7---7-----7----------7-8-------|
A|------7-----7---7-----7-----7---7-----7-----7---7-----7------7-8-----------|
E|---------------------------------------------------------------------------|

e|---------------------------------------------------------------------------|
B|---------------------------------------------------------------------------|
G|------6-----6---6h7---6-----6---6h7---6-----6---6h7---6--------------------|
D|------7-----7---7-----7-----7---7-----7-----7---7-----7--------------------|
A|------7-----7---7-----7-----7---7-----7-----7---7-----7--------------------|
E|---------------------------------------------------------------6~~---------|

e|---------------------------------------------------------------------------|
B|---------------------------------------------------------------------------|
G|------6-----6---6h7---6-----6---6h7---6-----6---6h7---6--------------------|
D|------7-----7---7-----7-----7---7-----7-----7---7-----7--------------------|
A|------7-----7---7-----7-----7---7-----7-----7---7-----7--------------------|
E|---------------------------------------------------------------------------|
                         ^ Repeat measure three times ^

  Here Stephen begins strumming, basically the same chord he's been playing.
  Listen to the song for the strumming pattern.

        *Taps guitar twice*
e|--0---|
B|--0---|
G|--6h7-|
D|--7---|
A|--7---|
E|--x---|

e|--------------------------------------------------------------------12-----|
B|---------------------------------------------------------------------------|
G|------6-----6---6h7---6-----6---6h7---6-----6---6h7---6--------------------|
D|------7-----7---7-----7-----7---7-----7-----7---7-----7--------------------|
A|------7-----7---7-----7-----7---7-----7-----7---7-----7--------------------|
E|---------------------------------------------------------------------------|

e|---------------------------------------------------------------------------|
B|---------------------------------------------------------------------------|
G|-----6-----6---6h7---6-----6---6h7---6-----6---6h7---6---------------------|
D|-----7-----7---7-----7-----7---7-----7-----7---7-----7---------------------|
A|-----7-----7---7-----7-----7---7-----7-----7---7-----7---------------------|
E|---------------------------------------------------------------------------|
                         ^ Repeat measure three times ^

  Strumming again.
        *Taps guitar twice.*
e|--0---|
B|--0---|
G|--6h7-|
D|--7---|
A|--7---|
E|--x---|

  And, that's it.  This is a really easy song to learn/play.  Enjoy.
  Yay, Stephen!

| 0  open
| /  slide up
| \  slide down
| h  hammer-on
| p  pull-off
| ~  vibrato
| +  harmonic
| x  Mute note
===============================================================================    

Added On December 12th, 2013

SHARE

Comments

blog comments powered by Disqus

VERSIONS

ADVERTISEMENT