Stereophonics Tabs

Daisy Lane

2 versions

TAB

            Daisy Lane-Stereophonics

I found this song on a Fan Site.

Intro Part 1
(Fades In)
e----11----12----12----12----12----12----11-----| This Runs Throughout
B-12----12----12----12----12----12----12----12--| The Song.
G-----------------------------------------------|
D-----------------------------------------------|
A-----------------------------------------------|
E-----------------------------------------------| 

Intro Part 2

Guitar 1

e----11----12----12----12----12----12----11-----| 
B-12----12----12----12----12----12----12----12--| 
G-----------------------------------------------|
D-----------------------------------------------|
A-----------------------------------------------|
E-----------------------------------------------| 

Guitar 2
 Let The chords Ring.
e-4~~~~--0~~~~--0~~~~--|
B-5~~~~--2~~~~--0~~~~--|
G-6~~~~--2~~~~--1~~~~--|
D-6~~~~--2~~~~--2~~~~--|
A-4~~~~--0~~~~--2~~~~--|
E---------------0~~~~--| This Also Runs Throughout The Verses And Choruses.


Guitar 3
 This Enters At Some Point In The Second Chorus.
e------------|
B------12----|
G-9-8-----8--|
D------------|
A------------|
E------------|

Bridge

Guitar 1

e----11----12----12----12----12----12----11-----| 
B-12----12----12----12----12----12----12----12--| Runs Throughout The 
G-----------------------------------------------| Bridge.
D-----------------------------------------------|
A-----------------------------------------------|
E-----------------------------------------------| 

Guitar 2
 Let The Chords Ring.
e-4~~~~--0~~~~--0~~~~--|    Then  e----------------|
B-5~~~~--0~~~~--2~~~~--|          B-4-4-4-4-4-4-4--|
G-6~~~~--1~~~~--2~~~~--|          G-4-4-4-4-4-4-4--|
D-6~~~~--2~~~~--2~~~~--|          D-4-4-4-4-4-4-4--|
A-4~~~~--2~~~~--0~~~~--|          A-2-2-2-2-2-2-2--|
E--------0~~~~---------| x3       E----------------|

Gutiar 3
 This Plays This Riff Lightly.
e------------|
B------12----|
G-9-8-----8--|
D------------|
A------------|
E------------|

Guitar 4
 And This Plays It With Distortion.
e------------|
B------12----|
G-9-8-----8--|
D------------|
A------------|
E------------|

I Think Thats About Right!    

Added On December 16th, 2013

SHARE

Comments

blog comments powered by Disqus

VERSIONS

ADVERTISEMENT