Stereophonics Tabs

It Means Nothing

3 versions

TAB

            It Means Nothing-Stereophonics

Forthcoming Single From 'Pull The Pin'.

Band-Kelly Jones-All Guitars, Vocals.
     Richard Jones-Bass, Backing Vocals.
     Javier Weyler-Drums.      

All Guitars Have Capo's On The 2nd fret.

Intro/Verse 1 + 2

(Weird Harmonics then the bass kicks in)

Guitar 1

e-3-3-3-3-2-2-2-2-3-3-3-3-3-2-2-2-2--3-3-3-3-2-2-2-2-3-3-3-3-3-2-2-2-2--|
B-3-3-3-3-3-3-3-3-3-3-3-3-3-3-3-3-3--3-3-3-3-3-3-3-3-3-3-3-3-3-3-3-3-3--|
G-0-0-0-0-0-0-0-0-0-0-0-0-0-0-0-0-0--0-0-0-0-0-0-0-0-0-0-0-0-0-0-0-0-0--|
D-0-0-0-0-0-0-0-0-0-0-0-0-0-0-0-0-0--x-x-x-x-x-x-x-x-x-x-x-x-x-x-x-x-x--|
A-x-x-x-x-x-x-x-x-x-x-x-x-x-x-x-x-x--3-3-3-3-3-3-3-3-3-3-3-3-3-3-3-3-3--|
E-3-3-3-3-3-3-3-3-3-3-3-3-3-3-3-3-3-------------------------------------|

Guitar 2

e------------|
B---10----9--|
G-9-----9----|
D------------|
A------------| 
E------------| (Repeated Throughout Verse)

Chorus 1

e-3-3-3-3-3-3-3-3-3-3-3-3-3-3-3-3-3--3-3-3-3-2-2-2-2-3-3-3-3-3-2-2-2-2--|
B-3-3-3-3-3-3-3-3-3-3-3-3-3-3-3-3-3--3-3-3-3-3-3-3-3-3-3-3-3-3-3-3-3-3--|
G-0-0-0-0-0-0-0-0-0-0-0-0-0-0-0-0-0--0-0-0-0-0-0-0-0-0-0-0-0-0-0-0-0-0--|
D-2-2-2-2-2-2-2-2-2-2-2-2-2-2-2-2-2--x-x-x-x-x-x-x-x-x-x-x-x-x-x-x-x-x--|
A-2-2-2-2-2-2-2-2-2-2-2-2-2-2-2-2-2--3-3-3-3-3-3-3-3-3-3-3-3-3-3-3-3-3--|
E-0-0-0-0-0-0-0-0-0-0-0-0-0-0-0-0-0-------------------------------------| x1

Guitar 2

e------------|
B---10----9--|
G-9-----9----|
D------------|
A------------| 
E------------| (Repeated Throughout Chorus)

Verse 3

Guitar 1

e-3-3-3-3-2-2-2-2-3-3-3-3-3-2-2-2-2--3-3-3-3-2-2-2-2-3-3-3-3-3-2-2-2-2--|
B-3-3-3-3-3-3-3-3-3-3-3-3-3-3-3-3-3--3-3-3-3-3-3-3-3-3-3-3-3-3-3-3-3-3--|
G-0-0-0-0-0-0-0-0-0-0-0-0-0-0-0-0-0--0-0-0-0-0-0-0-0-0-0-0-0-0-0-0-0-0--|
D-0-0-0-0-0-0-0-0-0-0-0-0-0-0-0-0-0--x-x-x-x-x-x-x-x-x-x-x-x-x-x-x-x-x--|
A-x-x-x-x-x-x-x-x-x-x-x-x-x-x-x-x-x--3-3-3-3-3-3-3-3-3-3-3-3-3-3-3-3-3--|
E-3-3-3-3-3-3-3-3-3-3-3-3-3-3-3-3-3-------------------------------------|

Guitar 2

e------------|
B---10----9--|
G-9-----9----|
D------------|
A------------| 
E------------| (Repeated Throughout Verse)

Gutiar 3

e-----------|
B-9b10-10r--|
G-----------|
D-----------|
A-----------|
E-----------| (Repeated throughout The Verse)

Chorus 2

e-3-3-3-3-3-3-3-3-3-3-3-3-3-3-3-3-3--3-3-3-3-2-2-2-2-3-3-3-3-3-2-2-2-2--|
B-3-3-3-3-3-3-3-3-3-3-3-3-3-3-3-3-3--3-3-3-3-3-3-3-3-3-3-3-3-3-3-3-3-3--|
G-0-0-0-0-0-0-0-0-0-0-0-0-0-0-0-0-0--0-0-0-0-0-0-0-0-0-0-0-0-0-0-0-0-0--|
D-2-2-2-2-2-2-2-2-2-2-2-2-2-2-2-2-2--x-x-x-x-x-x-x-x-x-x-x-x-x-x-x-x-x--|
A-2-2-2-2-2-2-2-2-2-2-2-2-2-2-2-2-2--3-3-3-3-3-3-3-3-3-3-3-3-3-3-3-3-3--|
E-0-0-0-0-0-0-0-0-0-0-0-0-0-0-0-0-0-------------------------------------| x1

Guitar 2

e------------|
B---10----9--|
G-9-----9----|
D------------|
A------------| 
E------------| (Repeated Throughout Chorus)

Guitar 3

e----------------------------|
B----------------------------|
G----------------------------|
D----------------------------|
A---5-7-9-10-----3-5-7-9-----|
E-0~~~~~~~~~~--0~~~~~~~~~~~--| x1

Verse 4

Guitar 1

e-3-3-3-3-2-2-2-2-3-3-3-3-3-2-2-2-2--3-3-3-3-2-2-2-2-3-3-3-3-3-2-2-2-2--|
B-3-3-3-3-3-3-3-3-3-3-3-3-3-3-3-3-3--3-3-3-3-3-3-3-3-3-3-3-3-3-3-3-3-3--|
G-0-0-0-0-0-0-0-0-0-0-0-0-0-0-0-0-0--0-0-0-0-0-0-0-0-0-0-0-0-0-0-0-0-0--|
D-0-0-0-0-0-0-0-0-0-0-0-0-0-0-0-0-0--x-x-x-x-x-x-x-x-x-x-x-x-x-x-x-x-x--|
A-x-x-x-x-x-x-x-x-x-x-x-x-x-x-x-x-x--3-3-3-3-3-3-3-3-3-3-3-3-3-3-3-3-3--|
E-3-3-3-3-3-3-3-3-3-3-3-3-3-3-3-3-3-------------------------------------|

Guitar 2

e------------|
B---10----9--|
G-9-----9----|
D------------|
A------------| 
E------------| (Repeated Throughout Verse)

Gutiar 3

e-----------|
B-9b10-10r--|
G-----------|
D-----------|
A-----------|
E-----------| (Repeated throughout The Verse)

Guitar 4

e-3~~~~~~--2~~~~~~--3~~~~~~--2~~~~~~--3~~~~~~--2~~~~~~--3~~~~~~--2--|
B-3~~~~~~--3~~~~~~--3~~~~~~--3~~~~~~--3~~~~~~--3~~~~~~--3~~~~~~--3--|
G-0~~~~~~--0~~~~~~--0~~~~~~--0~~~~~~--0~~~~~~--0~~~~~~--0~~~~~~--0--|
D-0~~~~~~--0~~~~~~--0~~~~~~--0~~~~~~--x~~~~~~--x~~~~~~--x~~~~~~--x--|
A-x~~~~~~--x~~~~~~--x~~~~~~--x~~~~~~--3~~~~~~--3~~~~~~--3~~~~~~--3--|
E-3~~~~~~--3~~~~~~--3~~~~~~--3~~~~~~--------------------------------|

Chorus 3

e-3-3-3-3-3-3-3-3-3-3-3-3-3-3-3-3-3--3-3-3-3-2-2-2-2-3-3-3-3-3-2-2-2-2--|
B-3-3-3-3-3-3-3-3-3-3-3-3-3-3-3-3-3--3-3-3-3-3-3-3-3-3-3-3-3-3-3-3-3-3--|
G-0-0-0-0-0-0-0-0-0-0-0-0-0-0-0-0-0--0-0-0-0-0-0-0-0-0-0-0-0-0-0-0-0-0--|
D-2-2-2-2-2-2-2-2-2-2-2-2-2-2-2-2-2--x-x-x-x-x-x-x-x-x-x-x-x-x-x-x-x-x--|
A-2-2-2-2-2-2-2-2-2-2-2-2-2-2-2-2-2--3-3-3-3-3-3-3-3-3-3-3-3-3-3-3-3-3--|
E-0-0-0-0-0-0-0-0-0-0-0-0-0-0-0-0-0-------------------------------------| x1

Guitar 2

e------------|
B---10----9--|
G-9-----9----|
D------------|
A------------| 
E------------| (Repeated Throughout Chorus)

Guitar 3

e----------------------------|
B----------------------------|
G----------------------------|
D----------------------------|
A---5-7-9-10-----3-5-7-9-----|
E-0~~~~~~~~~~--0~~~~~~~~~~~--| (Repeated Through Chorus)

Guitar 4

e----7------10-----7--|
B-10---10-8----10-----|
G---------------------|
D---------------------|
A---------------------|
E---------------------| (Repeated Throughout Chorus)

Verse 5

Guitar 1

e-3-3-3-3-2-2-2-2-3-3-3-3-3-2-2-2-2--3-3-3-3-2-2-2-2-3-3-3-3-3-2-2-2-2--|
B-3-3-3-3-3-3-3-3-3-3-3-3-3-3-3-3-3--3-3-3-3-3-3-3-3-3-3-3-3-3-3-3-3-3--|
G-0-0-0-0-0-0-0-0-0-0-0-0-0-0-0-0-0--0-0-0-0-0-0-0-0-0-0-0-0-0-0-0-0-0--|
D-0-0-0-0-0-0-0-0-0-0-0-0-0-0-0-0-0--x-x-x-x-x-x-x-x-x-x-x-x-x-x-x-x-x--|
A-x-x-x-x-x-x-x-x-x-x-x-x-x-x-x-x-x--3-3-3-3-3-3-3-3-3-3-3-3-3-3-3-3-3--|
E-3-3-3-3-3-3-3-3-3-3-3-3-3-3-3-3-3-------------------------------------|

Guitar 2

e------------|
B---10----9--|
G-9-----9----|
D------------|
A------------| 
E------------| (Repeated Throughout Verse)

Gutiar 3

e-----------|
B-9b10-10r--|
G-----------|
D-----------|
A-----------|
E-----------| (Repeated throughout The Verse)

Guitar 4

e-3~~~~~~--2~~~~~~--3~~~~~~--2~~~~~~--3~~~~~~--2~~~~~~--3~~~~~~--2--|
B-3~~~~~~--3~~~~~~--3~~~~~~--3~~~~~~--3~~~~~~--3~~~~~~--3~~~~~~--3--|
G-0~~~~~~--0~~~~~~--0~~~~~~--0~~~~~~--0~~~~~~--0~~~~~~--0~~~~~~--0--|
D-0~~~~~~--0~~~~~~--0~~~~~~--0~~~~~~--x~~~~~~--x~~~~~~--x~~~~~~--x--|
A-x~~~~~~--x~~~~~~--x~~~~~~--x~~~~~~--3~~~~~~--3~~~~~~--3~~~~~~--3--|
E-3~~~~~~--3~~~~~~--3~~~~~~--3~~~~~~--------------------------------|

Guitar 5

e----7------10-----7--|
B-10---10-8----10-----|
G---------------------|
D---------------------|
A---------------------|
E---------------------| (Repeated Throughout Verse)

It Fades Out In The Above Verse.

Thats It.    

Added On December 16th, 2013

SHARE

Comments

blog comments powered by Disqus

VERSIONS

ADVERTISEMENT