Stratovarius Tabs

Episode

3 versions

TAB

            Episode Tab by Stratovarius


Stratovarius: Episode

 Guitar 1/2 step down!!!
-------------------------
/\/ = Vibrato
/   = Slide Up
ha  = Harmonic
1/2 = bend half step
-------------------------
Intro- Keyboards...

 Slide/
Eb|-------------------------------------------------------------------------|
Bb|-----/-8--7--5------------------------|-/8--7--5-------------------------|
Gb|-----------------7/5---4---5--2--2/4--|-----------7/5--4--5--2-2/4-------|
Db|--------------------------------------|----------------------------------|
Ab|--------------------------------------|----------------------------------|
Eb|-------------------------------------------------------------------------|

Eb|-------------------------------------------------------------------------|
Bb|--------------------------------------|--/20-19-17-----------------------|
Gb|--------------------------------------|-------------19-17-16-17/-14--16--|
Db|---/10--12-/14--12--10--9--10--7/-9---|----------------------------------|
Ab|--------------------------------------|----------------------------------|
Eb|-------------------------------------------------------------------------|
                                              
Eb|-----------------------------------------H.a-----------------------------|
Bb|-/20-19-17----------------------------|--15/\/\/15/\/-15-/13\12--10------|
Gb|-----------19-17-16-17/-14--16--------|----------------------------------|
Db|--------------------------------------|----------------------------------|
Ab|--------------------------------------|----------------------------------|
Eb|-------------------------------------------------------------------------|

Eb|----------------------------------------------H.a---------------14/15----|
Bb|--12--8--10--|-8/\/\/--10/12--10\8--7-8-5-7-|-13/\/\/-15--17-------------|
Gb|-------------|------------------------------|----------------------------|
Db|-------------|------------------------------|----------------------------|
Ab|-------------|------------------------------|----------------------------|
Eb|-------------------------------------------------------------------------|
                 1/2                                 1/2
                 /\                                  /\       feedback... End
Eb|------10/15--17-14---15--17-/\/\/-19/20-22/24----24/\-24/\/\/\/----------|
Bb|--12---------------------------------------------------------------------|
Gb|-------------------------------------------------------------------------|
Db|-------------------------------------------------------------------------|
Ab|-------------------------------------------------------------------------|
Eb|-------------------------------------------------------------------------|


by SErgio Daher - BRAZIL
MAIL:
dtheater@hotmail.com
sergiod@sti.com.br

my page: "Guitar Hero Page"
http://www.geocities/SunsetStrip/Stage/2522/index.htm    

Added On December 12th, 2013

SHARE

Comments

blog comments powered by Disqus

VERSIONS

ADVERTISEMENT