Stray Cats Tabs

Please Dont Touch

1 versions

TAB

            Please Dont Touch Chords by Stray Cats

#----------------------------------PLEASE NOTE---------------------------------#
#This file is the author's own work and represents their interpretation of the #
#song. You may only use this file for private study, scholarship, or research. #
#------------------------------------------------------------------------------##
From: tronic@freeport.uwasa.fi (Antti Juhani Tietavainen)


                    Stray Cats : Please Don't Touch
                    ???????????????????????????????
I Heard this song and tabbed it, i hope somebody gets something from it.
It's not original Stray Cat's song, i do not just remember who was the
original writer. Enjoy :)

Begin:

                                                  Loop 4 times
E ||-3-3-3-3-3-3-3--0--------------------------   ------------|
B ||-------------------3-0---------------------   ------------|
G ||-----------------------2-0-----------------   ------------|
D ||---------------------------2-0----2--------   ------------|
A ||----------------------------------2--------   -2--2--2--2-|
E ||-------------------------------------------   ----3-----3-|
    """""""""""""""""""""""""""""""
    This part is also main riff, it
    will be played at end of every
    chorus.

Chords are :

Em
Em
e |---|---|---|---|---|
B |---|---|---|---|---|
G |---|---|---|---|---|
D |---|-x-|---|---|---|
A |---|-x-|---|---|---|
E |---|---|---|---|---|
A
A
e |---|---|---|---|---|
B |---|-x-|---|---|---|
G |---|-x-|---|---|---|
D |---|-x-|---|---|---|
A |---|---|---|---|---|
E |---|---|---|---|---|
D
D
e |---|-x-|---|---|---|
B |---|---|-x-|---|---|
G |---|-x-|---|---|---|
D |---|---|---|---|---|
A |---|---|---|---|---|
E |---|---|---|---|---|
A
A
e |---|---|---|---|---|
B |---|-x-|---|---|---|
G |---|-x-|---|---|---|
D |---|-x-|---|---|---|
A |---|---|---|---|---|
E |---|---|---|---|---|
Em
Em
e |---|---|---|---|---|
B |---|---|---|---|---|
G |---|---|---|---|---|
D |---|-x-|---|---|---|
A |---|-x-|---|---|---|
E |---|---|---|---|---|
Chorus : A
A
e |---|---|---|---|---|
B |---|-x-|---|---|---|
G |---|-x-|---|---|---|
D |---|-x-|---|---|---|
A |---|---|---|---|---|
E |---|---|---|---|---|
Em
Em
e |---|---|---|---|---|
B |---|---|---|---|---|
G |---|---|---|---|---|
D |---|-x-|---|---|---|
A |---|-x-|---|---|---|
E |---|---|---|---|---|
Please don't touch, A
A
e |---|---|---|---|---|
B |---|-x-|---|---|---|
G |---|-x-|---|---|---|
D |---|-x-|---|---|---|
A |---|---|---|---|---|
E |---|---|---|---|---|
Em
Em
e |---|---|---|---|---|
B |---|---|---|---|---|
G |---|---|---|---|---|
D |---|-x-|---|---|---|
A |---|-x-|---|---|---|
E |---|---|---|---|---|
I'll shake so much A
A
e |---|---|---|---|---|
B |---|-x-|---|---|---|
G |---|-x-|---|---|---|
D |---|-x-|---|---|---|
A |---|---|---|---|---|
E |---|---|---|---|---|
Em
Em
e |---|---|---|---|---|
B |---|---|---|---|---|
G |---|---|---|---|---|
D |---|-x-|---|---|---|
A |---|-x-|---|---|---|
E |---|---|---|---|---|
Please don't touch, D
D
e |---|-x-|---|---|---|
B |---|---|-x-|---|---|
G |---|-x-|---|---|---|
D |---|---|---|---|---|
A |---|---|---|---|---|
E |---|---|---|---|---|
I'll shake so much {riff} -- +-------------------------------------------------------------+ | To contact me : | | Internet : tronic@freeport.uwasa.fi | | Fidonet : Antti Tietavainen 2:227/2 |

Added On December 12th, 2013

SHARE

Comments

blog comments powered by Disqus

ADVERTISEMENT