Strong Bad Tabs

Trogdor

10 versions

TAB

            Trogdor Tab by Strong Bad


Intro
E|-----------------------------------------|
B|-----------------------------------------|
G|--------3---------------------3----------|
D|--------3----------5----------3---5---3/5| x2
A|--------1----------5----------1---5---3/5|
D|0-0-0-0----0-0-0-0-5--0-0-0-0---0-5-0-3/5|
PM-------    -------    -------   -   -

Verse (GUITAR 1)  
E|--------------------------------|
B|-----------------------------3-3|
G|2--0-----0-------2--0--2--0-----|
D|------3-----3--0----------------| x2
A|--------------------------------|
D|--------------------------------|

Verse  (GUITAR 2)
E|--------------------------------|
B|--------------------------------|
G|--------------------------------|
D|--------------------------------| x2
A|----1-----3-----1-----3-----3-3-|
D|0-0---0-0---0-0---0-0---0-0-----|
PM--------------------------------

Intro x2

Solo
E|-------------------------|
B|-------------------------| (It does this the first
G|-------------------------|  time)
D|0-3/5-0-3/5-0-3/5-5-5-5-5|
A|0-3/5-0-3/5-0-3/5-5-5-5-5|
D|0-3/5-0-3/5-0-3/5-5-5-5-5|

E|---------------------------|
B|---------------------------|
G|---------------------------|
D|0-3/5-0-3/5-0-3/5-0-3/5-5-5|
A|0-3/5-0-3/5-0-3/5-0-3/5-5-5|
D|0-3/5-0-3/5-0-3/5-0-3/5-5-5|

Outro
E|-----------------------------|
B|-----------------------------|
G|-----------------------------|
D|0-3/5-0-3/5-0-3/5-0-3/5-5-5-5|
A|0-3/5-0-3/5-0-3/5-0-3/5-5-5-5|
D|0-3/5-0-3/5-0-3/5-0-3/5-5-5-5|    

Added On December 12th, 2013

SHARE

Comments

blog comments powered by Disqus