Suburban Legends Tabs

Popular Demand

1 versions

TAB

            -------------------------------------------------------------------------------
		     POPULAR DEMAND - suburban ledgends
---------------------------------------------------------------------------


e|---------------------------------------------------------------------------|
B|---------------------------------------------------------------------------|
G|---------------------------------------------------------------------------|
D|------------------------------2--------------------------------------------|
A|--5---2--------------5----5--------5----2----------------------------------|
E|----------3----------------------------------------------------------------|

e|---------------------------------------------------------------------------|
B|---------------------------------------------------------------------------|
G|---------------------------------------------------------------------------|
D|---------------------2---0-------------------------------------------------|
A|---3---2---0---3-3-----------3---------------------------------------------|
E|---------------------------------------------------------------------------|

e|---------------------------------------------------------------------------|
B|---------------------------------------------------------------------------|
G|---------------------------------------------------------------------------|
D|---------------------2-----------------------------------------------------|
A|---5---2------5-5-------5---2----------------------------------------------|
E|-----------3---------------------------------------------------------------|

e|---------------------------------------------------------------------------|
B|---------------------------------------------------------------------------|
G|---------------------------------------------------------------------------|
D|---------------------------------------------------------------------------|
A|---3---2---0-------0-0---2---0---------------------------------------------|
E|---------------3-----------------3-----------------------------------------|    

Added On December 16th, 2013

SHARE

Comments

blog comments powered by Disqus

ADVERTISEMENT