Sufjan Stevens Tabs

Happy Birthday

2 versions

TAB

            Happy Birthday Tab by Sufjan Stevens


----------------------------------------------------------------------------
		    HAPPY BIRTHDAY - Sufjan Stevens
----------------------------------------------------------------------------
Tabbed by: 	Vinny Roberts
Email: 		scimitar_eater@hotmail.com

Tuning: Standard with capo on 6th fret (Bb,D#,G#,C#,F,Bb)

e|-------------------------|-------------------------|
B|-----1-----1-----1-----1-|-----1-----1-----1-----1-|
G|---0-----0-----0-----0---|---0-----0-----0---0-0---|
D|-------------------0-----|-2-----3-----2-----------|
A|-0-----2-----3-----------|-------------------------|
E|-------------------------|-------------------------|

e|-------------------------|-------------------------|
B|-----1-----1-----1-----1-|-----1-----1-----1---1-1-|
G|---0-----0-----0-----0---|---0-----0-----0---------|
D|-3-----2-----0-----------|-------0-----------------|
A|-------------------3-----|-2-----------3-----3-----|
E|-------------------------|-------------------------|

| /  slide up
| \  slide down
| h  hammer-on
| p  pull-off
| ~  vibrato
| +  harmonic
| x  Mute note
============================================================================    

Added On December 12th, 2013

SHARE

Comments

blog comments powered by Disqus

VERSIONS

ADVERTISEMENT