Sufjan Stevens Tabs

Sister

1 versions

TAB

            Sister Tab by Sufjan Stevens


So I was upset/dissappointed when I got on here to look for the sister tab,
and there was none. 

tisk tisk. 

so here it is. 


Song: Sister
By: Sufjan Stevens
Albumn: Seven Swans
Tuning: Standard

All Ss. Funny Me. 

Intro:

These chords are pretty much played through out the entire song,
with the exception of the bridge, playing during the solo too.


|-------------------------------------------------------------|
|-------------------------------------------------------------|
|----4-4-4-4---2-2-2-2----------------------------------------|
|----4-4-4-4---2-2-2-2----6-6-6-6---2-2-2-2-------------------|
|----2-2-2-2---0-0-0-0----6-6-6-6---2-2-2-2-------------------|
|-------------------------4-4-4-4---0-0-0-0-------------------|

Solo doesn't kick in until that ^^^ is played twice. 

First Solo

|-------------------------------------------------------------|
|---------------12-12-12-12-14-10--9-10-9--9-10-9-7-7---7-7---|
|---------11-11----------------------------------------9-9-9--|
|-----9-9-----------------------------------------------------|
|-------------------------------------------------------------|
|-------------------------------------------------------------|


|-------------------------------------------------------------|
|--------------12-12-12-12-14-10--9-10-9--9-10-9-7-7-7----7-7-|
|--------11-11--------------------------------------9-9--9-9-9|
|-----9-9-----------------------------------------------------|
|-------------------------------------------------------------|
|-------------------------------------------------------------|


|-------------------------------------------------------------|
|-------------------------------------------------------------|
|--9--9-9-8-8---9--9-9-8-8---9--9-9-8-8--8-4------------------|
|-------------------------------------------------------------|
|-------------------------------------------------------------|
|-------------------------------------------------------------|

Play this specific ^^^ part 2 times 

Play 3 solo times


Couldn't get the rest of the solo after that, sorry. 





Bridge:

Dada da da da da da da. . . 

|------------------------------------------------------------|
|------------------------------------------------------------|
|----4-4-4-4---2-2-2-2---------------------------------------|
|----4-4-4-4---2-2-2-2----6-6-6-6---4-4-4-4------------------|
|----2-2-2-2---0-0-0-0----6-6-6-6---4-4-4-4------------------|
|-------------------------4-4-4-4---2-2-2-2------------------|

|------------------------------------------------------------|
|------------------------------------------------------------|
|----4-4-4-4---2-2-2-2---------------------------------------|
|----4-4-4-4---2-2-2-2----6-6-6-6---4-4-4-4------------2-----|
|----2-2-2-2---0-0-0-0----6-6-6-6---4-4-4-4------------2-----|
|-------------------------4-4-4-4---2-2-2-2------------0-----|



after bridge



|-------------------------------------------------------------|
|-------------------------------------------------------------|
|----4-4-4-4---2-2-2-2----------------------------------------|
|----4-4-4-4---2-2-2-2----6-6-6-6---2-2-2-2-------------------|
|----2-2-2-2---0-0-0-0----6-6-6-6---2-2-2-2-------------------|
|-------------------------4-4-4-4---0-0-0-0-------------------|    

Added On December 12th, 2013

SHARE

Comments

blog comments powered by Disqus

ADVERTISEMENT