Sum 41 Tabs

Hell Song

19 versions

TAB

            Hell Song Tab by Sum 41


Sum 41 - The Hell Song
Submitted By: Charlie smith


Hi, i'm charlie smith. This tab is almost 100 % correct. I'm only 15 so what 
can I say if it's wrong?  
This is the hell song by sum 41.
My guitar is tuned a half a step down to E flat, keep that in mind.

(pm)= palm mutting
(b)= bend
(h)=hammer on(played once, then second time chords come in
E-----------------------------------------------------------------------
B-----------------------------------------------------------------------
G-----------------------------------------------------------------------
D---------0--2----------------0--2----------------0--2------ 3-- 2- 0-----
A--0--3---------3---------3----------3-----3--3--------3----------------
E--------------------1-------------------------------------3------------

These are the chords played over the riff above the second time (8th notes)
E-------------------------------------------------------------
B-------------------------------------------------------------
G--2-------5--------------------------------------------------
D--2---3---5--5----(played-twice)-----------------------------------------------
A--0---3---3--5----------------------------------------------------
E------1------3-------------------------------------------------
(palm muted, played twice)
E------------------------------------------------------------------
B-----------------------------------------------------------------
G--2-------5-----------------------------------------------------------
D--2---3---5--5-----------------------------------------------------------
A--0---3---3--5---------------------------------------------------------
E------1------3-------------------------------------------------------
   |------------| (pm)
E------------------------------------------------------------------
B-----------------------------------------------------------------
G--2-2--2--2-2-------------------5-5--5--5-5--5--------------------------
D--2-2--2--2-2----3-3--3--3-3----5-5--5--5-5--5---5-5--5--5-5--5------------------
A--0-0--0--0-0----3-3--3--3-3----3-3--3--3-3--3---5-5--5--5-5--5-------------------
E-----------------1-1--1--1-1---------------------3-3--3--3-3--3------------
  |---|   |---|  |---|   |---|  |---|   |---|    |---|   |---|
  (pm)    (pm)   (pm)    (pm)   (pm)    (pm)     (pm)    (pm)
(chorus, open chords, 8th notes)
E-------------------------------------------------------------
B-------------------------------------------------------------
G--2-----5------------------------------------------------------
D--2--3--5--5------------------------------------------------------
A--0--3--3--5------------------------------------------------------
E-----1-----3----------------------------------------------------


(solo)
                                            (both guitars play this)
E--------------------------------------------------------------
B-10-----10-----8-------------------------------5-7-8-10-8-6-5-
G-12b13--12b13--10b11--10-7--7h9p7-5h7p5-4h5p4--5-6-9-10-9-7-5-
D--------------------------------------------------------------
A--------------------------------------------------------------
E--------------------------------------------------------------E-------------------------------------------------------------
B-------------------------------------------------------------
G--5h7p5h7p5h7p5h7p5---7h9p7h9p7h9p7h9p7---9h10p9h10p9h10p9h10p9-10h12p10h12p10h12p10h12p10-
D-------------------------------------------------------------
A-------------------------------------------------------------
E-------------------------------------------------------------


E-6-----7-------9-----10-----------------------------------------
B-9b11--10b12---12b14-13b15---15b17-17-17-17-17-15b17-15-13-15b1715--
G-------------------------------------------------------------
D-----------------------------------------------------------
A-------------------------------------------------------------
E-------------------------------------------------------------


E-------15---------------------15-----------------------------------
B-15b17----17-15-15b17-15-15b17---17-15-15b17-15--------------------
G----------------------------------------------------------------
D--------------------------------------------------------------
A-----------------------------------------------------------------
E------------------------------------------------------------------

you can figure out the little riff thats next, i'm to lazy to tab it out
===========The Hell Song
band:sum 41
album:does this look infected
e amil:givmeawhooper

 gtr 1 intro

-----------------------------------------------------------------
-----------------------------------------------------------------
-----------------------------------------------------------------
------------------------------------2-1-------------------------- x3
-----------4-6-----------4-6------------4------------------------
-----4-7--------7---0-7-------7--2-------------------------------

verse     p.m

-----------------------------------------------------------------
-----------------------------------------------------------------
-----------------4-----------------------------------------------
-----6-----2-----4----4------------------------------------------
-----6-----2-----2----4------------------------------------------
-----4-----0----------2------------------------------------------

interlude

-----------------------------------------------------------------
-----------------------------------------------------------------
-----------------------------------------------------------------
------------------------------------2-1--------------------------
-----------4-6-----------4-6------------4------------------------
-----4-7--------7---0-7-------7--2-------------------------------

chours

-----------------------------------------------------------------
-----------------------------------------------------------------
-----------------4-----------------------------------------------
-----6-----2-----4----4------------------------------------------
-----6-----2-----2----4------------------------------------------
-----4-----0----------2------------------------------------------

solo

-----------------------------------------------------------------
-----------------------------------------------------------------
--9-9-9-7---9-9-9-7----7-7-7-------------------------------------
----------9---------9--------9-8-6-9h11p9--8h10p9-6--------------
-----------------------------------------------------------------
-----------------------------------------------------------------

-----------------------------------------------------------------
----------7-9-7-----7--------------------------------------------
6h8p6-8-9-------9-8----------------------------------------------
------------------------7h8p7h8p7h8p7h8p7h8p7h8------------------
-----------------------------------------------------------------
------------------------------------------------

-----------------------------------------------------------------
-----------------------------------------------------------------
--9h10p9h10p9h10p9h10p9h10p9h10-10h11p10h11p10h------------------
-----------------------------------------------------------------
-----------------------------------------------------------------
-----------------------------------------------------------------

-----------------------------------------------------------------
-----------------------7h8p7h8p7h8p7h8p7h8p7h8-------------------
--11p10h11p10h11p10h11-------------------------------------------
-----------------------------------------------------------------
-----------------------------------------------------------------
-----------------------------------------------------------------

-----------------------------------------------------------------
---9-9/11-11/12-12/14---16-16-p14--------------------------------
----------------------------------16p13--------------------------
-----------------------------------------------------------------
-----------------------------------------------------------------
-----------------------------------------------------------------


-----------------------------------------------------------------
-16-16-p14-------16b18r16p14----16b18r16p14----------------------
-----------16p13-------------16-------------16-------------------
-----------------------------------------------------------------
-----------------------------------------------------------------
-----------------------------------------------------------------


-----------------------------------------------------------------
-----------------------------------9-7-9-------------------------
--16-15-15-13-13----13-------------------------------------------
-----------------16----16-14-13----------------------------------
--------------------------------14-------------------------------
-----------------------------------------------------------------

well thats all igot so hope u rockers like it tbbed by jonathan h

beat u tommy busch
===========tabbed by - Daniel
Sum 41 - The Hell Song
Album - Does This Look Infected?
Tuning - Standard

This song is pretty easy to play except for the solo which is basically
a bunch of hammer-ons and pull-offs, but its a really cool song. Definately
worth learning.

Key
. - palm mute
b - bend
r - release
h - hammer on
p - pull off

Intro x3
gtr. 1
E--------------------------------------------------------------------
B--------------------------------------------------------------------
G--------------------------------------------------------------------
D--------------------------------------------------------------------
A--2-4-6-2-2-4-6-2-2-2-4-6-2----7-7-6-4------------------------------
E-4-------0------------------2-2-------------------------------------

gtr. 2 (comes in after gtr. 1 plays intro once)
E--------------------------------------------------------------------
B--------------------------------------------------------------------
G-----------4--------------------------------------------------------
D-6----2----4-x8-4---------------------------------------------------
A-6-x8-2-x8-2----4-x8------------------------------------------------
E-4----0---------2---------------------------------------------------

verses 
E-------------------------------------------------------------------
B-------------------------------------------------------------------
G-------------------44444444-------------------------444444---------
D-66666666-22222222-44444444-44444444--666666-222222-444444-444444--
A-66666666-22222222-22222222-44444444--666666-222222-222222-444444--
E-44444444-00000000----------22222222--444444-000000--------222222--
  ........ ........ ........ ... . .   .. ..  .. ..  .. ..  .. ..
Chorus x2
E--------------------------------------------------------------------
B--------------------------------------------------------------------
G-----------4--------------------------------------------------------
D-6----2----4-x8-4---------------------------------------------------
A-6-x8-2-x8-2----4-x8------------------------------------------------
E-4----0---------2---------------------------------------------------

Solo
I'm not too sure about it. I had a little help with it and I looked
at what a another guy had tabbed out that is similar to this solo tab.
I think it's accurate for the most part though.
e----------------------------------------------------------- 
B--7b9999r7-4---7b99999r7-4--/77777-5-4---4h5p4-2h4p2-0h2p0- 
G---------------------------------------6------------------- 
D----------------------------------------------------------- 
A----------------------------------------------------------- 
E----------------------------------------------------------- 

e------------------------------- 
B-4-5-7-9-7-5-7-9-    

Added On December 12th, 2013

SHARE

Comments

blog comments powered by Disqus