Sum 41 Tabs

Hell Song

19 versions

TAB

            Hell Song Tab by Sum 41


-------------------------------------------------------------------------------
		               Hell Song - Sum 41
-------------------------------------------------------------------------------

Tabbed by: Ignacio "Coco" Vespoli
Email: cocofuhgawz@hotmail.com

Tuning: Normal


INTRO


Guitar 1
e|---------------------------------------------------------------------------|
B|---------------------------------------------------------------------------|
G|---------------------------------------------------------------------------|
D|---------------------------------------------------------------------------|
A|------4-6--------4-6--------4-6--------7-7-6-6-4-4-------------------------|
E|--4-7-----7--0-7-----7--7-7-----7--2-2-------------------------------------|


Guitar 2
e|---------------------------------------------------------------------------|
B|---------------------------------------------------------------------------|
G|--Guitar 2 don't play anYthing----------------------------------------------|
D|---------------------------------------------------------------------------|
A|---------------------------------------------------------------------------|
E|---------------------------------------------------------------------------|


Guitar 1
e|---------------------------------------------------------------------------|
B|---------------------------------------------------------------------------|
G|---------------------------------------------------------------------------|
D|---------------------------------------------------------------------------|
A|------4-6--------4-6--------4-6--------7-7-6-6-4-4-------------------------|
E|--4-7-----7--0-7-----7--7-7-----7--2-2-------------------------------------|


Guitar 2
e|---------------------------------------------------------------------------|
B|---------------------------------------------------------------------------|
G|------------------------444444444------------------------------------------|
D|--666666666--222222222--444444444--444444444-------------------------------|
A|--666666666--222222222--222222222--444444444-------------------------------|
E|--444444444--000000000-------------222222222-------------------------------|


Guitar 1
e|---------------------------------------------------------------------------|
B|---------------------------------------------------------------------------|
G|---------------------------------------------------------------------------|
D|---------------------------------------------------------------------------|
A|------4-6--------4-6--------4-6--------7-7-6-6-4-4-------------------------|
E|--4-7-----7--0-7-----7--7-7-----7--2-2-------------4-----------------------|


Guitar 2
e|---------------------------------------------------------------------------|
B|---------------------------------------------------------------------------|
G|------------------------444444444------------------------------------------|
D|--666666666--222222222--444444444--44444444444444--------------------------|
A|--666666666--222222222--222222222--44444444444444--------------------------|
E|--444444444--000000000-------------22222222222222--------------------------|



CHORUS (THE TWO GUITARS PLAY THE SAME)
**PALM MUTED**

e|---------------------------------------------------------------------------|
B|---------------------------------------------------------------------------|
G|--------------------------x444444444---------------------------------------|
D|--x666666666--x222222222--x444444444--x444444444---------------------------|
A|--x666666666--x222222222--x222222222--x444444444---------------------------|
E|--x444444444--x000000000--------------x222222222---------------------------|


e|---------------------------------------------------------------------------|
B|---------------------------------------------------------------------------|
G|--------------------------x444444444---------------------------------------|
D|--x666666666--x222222222--x444444444--x44444-------------------------------|
A|--x666666666--x222222222--x222222222--x44444-------------------------------|
E|--x444444444--x000000000--------------x22222-------------------------------|



VERSE (THE TWO GUITARS PLAY THE SAME) 


e|---------------------------------------------------------------------------|
B|---------------------------------------------------------------------------|
G|-------------------4--4--------------------4--4----------------------------|
D|-4--4--6--6--2--2--4--4--4--4--6--6--2--2--4--4--444444444-----------------|
A|-4--4--6--6--2--2--2--2--4--4--6--6--2--2--2--2--444444444-----------------|
E|-2--2--4--4--0--0--------2--2--4--4--0--0--------222222222-----------------|



VERSE 2


Guitar 1
e|---------------------------------------------------------------------------|
B|---------------------------------------------------------------------------|
G|---------------------------------------------------------------------------|
D|---------------------------------------------------------------------------|
A|------4-6--------4-6--------4-6--------7-7-6-6-4-4-------------------------|
E|--4-7-----7--0-7-----7--7-7-----7--2-2-------------------------------------|


Guitar 2
e|---------------------------------------------------------------------------|
B|---------------------------------------------------------------------------|
G|------------------------444444444------------------------------------------|
D|--666666666--222222222--444444444--444444444-------------------------------|
A|--666666666--222222222--222222222--444444444-------------------------------|
E|--444444444--000000000-------------222222222-------------------------------|


Guitar 1
e|---------------------------------------------------------------------------|
B|---------------------------------------------------------------------------|
G|---------------------------------------------------------------------------|
D|---------------------------------------------------------------------------|
A|------4-6--------4-6--------4-6--------7-7-6-6-4-4-------------------------|
E|--4-7-----7--0-7-----7--7-7-----7--2-2-------------4-----------------------|


Guitar 2
e|---------------------------------------------------------------------------|
B|---------------------------------------------------------------------------|
G|------------------------444444444------------------------------------------|
D|--666666666--222222222--444444444--44444444444444--------------------------|
A|--666666666--222222222--222222222--44444444444444--------------------------|
E|--444444444--000000000-------------22222222222222--------------------------|



VERSE (THE TWO GUITARS PLAY THE SAME) (with some changes)


e|--------------------------------------------|
B|--------------------------------------------|
G|--------------4--4--------------------4--4--|
D|--6--6--2--2--4--4--4--4--6--6--2--2--4--4--|
A|--6--6--2--2--2--2--4--4--6--6--2--2--2--2--|
E|--4--4--0--0--------2--2--4--4--0--0--------|


e|------------------------------------------------------------|
B|------------------------------------------------------------|
G|-------------------4--4--------------------4--4-------------|
D|-4--4--6--6--2--2--4--4--4--4--6--6--2--2--4--4--444444444--|
A|-4--4--6--6--2--2--2--2--4--4--6--6--2--2--2--2--444444444--|
E|-2--2--4--4--0--0--------2--2--4--4--0--0--------222222222--|



VERSE 3 (THE TWO GUITARS PLAY THE SAME)


e|---------------------------------------------------------------------------|
B|---------------------------------------------------------------------------|
G|------------------------444444444------------------------------------------|
D|--666666666--222222222--444444444--444444444-------------------------------|
A|--666666666--222222222--222222222--444444444-------------------------------|
E|--444444444--000000000-------------222222222-------------------------------|


e|---------------------------------------------------------------------------|
B|---------------------------------------------------------------------------|
G|------------------------444444444------------------------------------------|
D|--666666666--222222222--444444444--444444444-------------------------------|
A|--666666666--222222222--222222222--444444444-------------------------------|
E|--444444444--000000000-------------222222222-------------------------------|


e|---------------------------------------------------------------------------|
B|---------------------------------------------------------------------------|
G|------------------------444444444------------------------------------------|
D|--666666666--222222222--444444444--444444444-------------------------------|
A|--666666666--222222222--222222222--444444444-------------------------------|
E|--444444444--000000000-------------222222222-------------------------------|


e|-----------------------------------------------------------|
B|-----------------------------------------------------------|
G|------------------------444444444--------------------------|
D|--666666666--222222222--444444444--444444444--66-66-66-66--|
A|--666666666--222222222--222222222--444444444--66-66-66-66--|
E|--444444444--000000000-------------222222222--44-44-44-44--|



SOLO 100% PERFECT


Guitar 1

    b.u.  r.b.   r.b.   r.b.   r.b.   r.b.
e|------------------------------------------|
B|---9--------------------------------------|
G|--11----(13)---(13)---(13)---(13)---(13)--| x 2
D|------------------------------------------|
A|------------------------------------------|
E|------------------------------------------|


e|-----------------------------|----------------------|
B|-----------------------------|----------------------|
G|--/11-11-11-11-11------------|----------------------|
D|-------------------14-13-11--|--13h14--11h13--9h11--|
A|-----------------------------|----------------------|
E|-----------------------------|----------------------|


e|------------------------|
B|------------------------|
G|-------8-9-8---------8--|
D|--9-11-------11-9-11----|    

Added On December 12th, 2013

SHARE

Comments

blog comments powered by Disqus