Sum 41 Tabs

How You Remind Me Live

2 versions

TAB

            How You Remind Me Live Tab by Sum 41


How You Remind Me-Sum 41
Live From New Years Eve

Db Ab Db Gb Bb Eb
(Live Sum 41 play in Eb, and Drop Db)

Deryk:(over crowd cheering)

“Right now were gonna perform the canadian national anthem,
and i swear to god i’m gonna screw the words up.....”

*note*-this is just something i figured out my self
from an mp3 from limewire, some of the lead might be wrong
but, i don’t care.

Verse x2 pm

e-----------------------------------------------------------------
b-----------------------------------------------------------------
g-----------------------------------------------------------------
d-6-6-6-6-6-6-6-6-----------------4-4-4-4-4-4-4-4-----------------
a-4-4-4-4-4-4-4-4-4-4-4-4-4-4-4-4-2-2-2-2-2-2-2-2-2-2-2-2-2-2-2-2-
d-----------------4-4-4-4-4-4-4-4-----------------2-2-2-2-2-2-2-2-

Pre Chorus:

e-----------------------------------------------------------------
b-----------------------------------------------------------------
g-----------------------------------------------------------------
d-----6-------6-----------------------4-------4-------------------
a-4-4-4-4-4-4-4-4-----4-------4---2-2-2-2-2-2-2-2-2-2-2-2-2-2-2-2-
d-----------------4-4-4-4-4-4-4-4-----------------2-2-2-2-2-2-2-2-

Chorus: x2

e-----------------------------------------------------------------
b-----------------------------------------------------------------
g-----------------------------------------------------------------
d-6-6-6-6-6-6-6-6-----------------4-4-4-4-4-4-4-4-----------------
a-4-4-4-4-4-4-4-4-2-2-2-2-2-2-2-2-2-2-2-2-2-2-2-2-4-4-4-4-4-4-4-4-
d-----------------2-2-2-2-2-2-2-2-----------------4-4-4-4-4-4-4-4-

e-----------------------------------------------------------------
b-----------------------------------------------------------------
g-----------------------------------------------------------------
d-6-6-6---------------------------4-4-4-4-4-4-4-4-----------------
a-4-4-4-----------2-2-2-----------2-2-2-2-2-2-2-2-4-4-4-4-4-4-4-4-
d-----------------2-2-2---------------------------4-4-4-4-4-4-4-4-

e-----------------------------------------------------------------
b-----------------------------------------------------------------
g-----------------------------------------------------------------
d-6-6-6-6-6-6-6-6-----------------4-4-4-4-4-4-4-4-----------------
a-4-4-4-4-4-4-4-4-2-2-2-2-2-2-2-2-2-2-2-2-2-2-2-2-4-4-4-4-4-4-4-4-
d-----------------2-2-2-2-2-2-2-2-----------------4-4-4-4-4-4-4-4-

Tag

e-----------------------------------------------------------------
b-----------------------------------------------------------------
g-----------------------------------------------------------------
d-6-6-6-6-6-6-6-6-----------------4-4-4-4-4-4-4-4-----------------
a-4-4-4-4-4-4-4-4-4-4-4-4-4-4-4-4-2-2-2-2-2-2-2-2-----2---------2-
d-----------------4-4-4-4-4-4-4-4-----------------2-2-2-----2-2-2-
                                                 pm         pm

Verse 2

e-----------------------------------------------------------------
b-----------------------------------------------------------------
g-----------------------------------------------------------------
d-6---------------------------------------------------------------
a-4---------------------------------------------------------------
d-----------------------------------------------------------------

PreChorus
Chorus
Tag

Bridge:

e-----------------------------------------------------------------
b-----------------------------------------------------------------
g-----------------------------------------------------------------
d-6-6-6-6-6-6-6-6-----------------4-4-4-4-4-4-4-4-----------------
a-4-4-4-4-4-4-4-4-4-4-4-4-4-4-4-4-2-2-2-2-2-2-2-2-2-2-2-2-2-2-2-2-
d-----------------4-4-4-4-4-4-4-4-----------------2-2-2-2-2-2-2-2-

all harmonics

e-12--------------------12---------------------12-----------------
b----12-------------------12----------------------12--------------
g----------------------------------------------------12-----------
d-----------------------------------------------------------------
a-----------------------------------------------------------------
d-----------------------------------------------------------------

Some of the words are changed, i.e.......
it’s not like u, to say sorry, i’m now waitin’ for a different story.......
you get the drift


that’s aboot all, eh

trevor jones
timmy91199@yahoo.ca    

Added On December 12th, 2013

SHARE

Comments

blog comments powered by Disqus

VERSIONS

ADVERTISEMENT