Sum 41 Tabs

Open Your Eyes

2 versions

TAB

            Open Your Eyes Tab by Sum 41


-------------------------------------------------------------------------------
			     Open Your Eyes - Sum 41
-------------------------------------------------------------------------------
Tabbed by:[travis]
Email: syn_gates_punk14@msn.com

This has to be one of Sum 41's coolest songs. I figured this out from other tabs on other sites and from 
listening to it a lot. 

Tuning: Db-Ab-Db-Gb-Bb-Eb (low to high)


Intro:
Guitar 1:
eb|---------------------------------------------------------------------------|
Bb|---------------------------------------------------------------------------| Play this once.
Gb|---------------------------------------------------------------------------|
Db|-9-9-9-9-9-9-9-9-9-9-9-9-9-9-9-9-----w/-wah-wah-pedal----------------------|
Ab|---------------------------------------------------------------------------|
Db|---------------------------------------------------------------------------|


Guitars 1 and 2: w/ distortion
"Likely........................................."
eb|-----------------------------------------------------------|
Bb|----------3-3-3-3--3-3-3-3---------------------------------| Play twice.
Gb|-6-6-6-6--2-2-2-2--2-2-2-2---------------------------------|
Db|-4-4-4-4--0-0-0-0--2-2-2-2--2-2--0-2-2--0-0-0-0-2----------|
Ab|-4-4-4-4--0-0-0-0--0-0-0-0--2-2--0-2-2--0-0-0-0-2----------|
Eb|-4-4-4-4--0-0-0-0-----------2-2--0-2-2--0-0-0-0-2----------|


Verse 1:
Guitars 1 and 2: w/ echo type effect:
eb|-----------------------------------------------------|
Bb|-----2------2h3-2-------2-----------0----------------|
Gb|---2-------2-----2--------2--------1-----------------|Play once.
Db|-4------4-4-------4---4-----2---2-2------------------|Let ring throughout.
Ab|-----------------------------------------------------|
Db|-----------------------------------------------------|


Verse 2:
Guitars 1 and 2: w/ slight distortion. 
eb|-----------------------------------------------------------------------------------------|
Bb|-2--2--2--2--2--2--2h3--3--3--3--3--3--3--3--3---3-3---2--2--2--2--2--2---0--0--0--0--0--|
Gb|-2--2--2--2--2--2--2----2--2--2--2--2--2--2--2---2-2---2--2--2--2--2--2---1--1--1--1--1--|
Db|-4--4--4--4--4--4--4----4--4--4--4--4--4--4--4---4-4---2--2--2--2--2--2---2--2--2--2--2--|
Ab|-----------------------------------------------------------------------------------------|
Db|-----------------------------------------------------------------------------------------|
  *When you hit each note above, don't strum it all together, hit each note, but mute it 
   fast after you strum it, to get that sound like in the song. Some of notes might be tabbed
   more than they're suppose to be played.

Verse 3:
Guitars 1 and 2: w/ distortion.
eb|---------------------------------------------------------------------------|
Bb|---------------------------------------------------------------------------|
Gb|---------------------------------------------------------------------------|*Pick Slide*
Db|---------------------------------------------------------------------------|
Ab|-x/x/x/x/x/x/x/x/x/x/x/x/x/x/x/x/x/x/x/x/x/x/x/x/x/x/x/x/x/x/x/x/x/x/x/----|
Db|-x/x/x/x/x/x/x/x/x/x/x/x/x/x/x/x/x/x/x/x/x/x/x/x/x/x/x/x/x/x/x/x/x/x/x/----|


Chorus 1:
Guitars 1 and 2: w/distortion.
eb|---------------------------------------|
Bb|---------------------------------------|
Gb|---------------------2222--------------| Play this twice in all.
Db|-4444------0000------2222-x4---2222----|
Ab|-4444-x4---0000-x4---0000------2222-x4-|
Db|-4444------0000----------------2222----|

Guitars 1 and 2 play "Verse 1" again. Then they play this:

Verse 5:
Guitars 1 and 2:
eb|-------------------------------------------------------------------------------------------|
Bb|-14-14-14-14-14-14-14--15-15-15-15-15-15-15-15--15-15--14-14-14-14-14-14---12-12-12-12-12--|
Gb|-14-14-14-14-14-14-14--14-14-14-14-14-14-14-14--14-14--14-14-14-14-14-14---13-13-13-13-13--|
Db|-16-16-16-16-16-16-16--16-16-16-16-16-16-16-16--16-16--14-14-14-14-14-14---14-14-14-14-14--|
Ab|-------------------------------------------------------------------------------------------|
Db|-------------------------------------------------------------------------------------------|
   *Play this the same way as Verse 2.


Guitars 1 and 2 play the "pickslide" and "Chorus" again. Then play this:

Interlude:
Guitar 1:
eb|---------------------------------------------------------------------------|
Bb|----7~---------------------------------------------------------------------|
Gb|----6~---------------------------------------------------------------------|
Db|----7~---------------------------------------------------------------------|
Ab|-4--4~---------------------------------------------------------------------|
Db|-4--4~---------------------------------------------------------------------|


Guitar 2:

Ab|-----------0--0----0-0-0---0-0-0---0-0-0--|
Db|-----------0--0----0-0-0---0-0-0---0-0-0--|
pm.                   . . .   . . .   . . .

Guitar Solo:

Guitar 3: Pickslides
Guitar 2: Play Chorus twice while Guitar 1 plays solo

Guitar 1: w/ wammy pedal.
eb|--------------------------------------------------|
Bb|--------------------------------------------------|
Gb|--------------------------------------------------| Play this twice.
Db|-18/-----4---6---7--9--11--12--11--12--12/--14~---|
Ab|--------------------------------------------------|
Db|--------------------------------------------------|
 *Use the wammy bar on all notes except the "18." Use the wammy bar
  to give each note that high pitch sound.

There's also Deryck playing the keyboard with a tremelo effect after Dave plays the solo.

Guitars 1 and 2 play Chorus 4 times

Guitar 1 (Double tracked): play this in between the chorus:
w/ wammy pedal:
eb|---------------------------------------------------------------------------|
Bb|---------------------------------------------------------------------------|
Gb|---------------------------------------------------------------------------| Play this once.
Db|-4--6--7--9--11~~~~~~------------------------------------------------------|
Ab|---------------------------------------------------------------------------|
Db|---------------------------------------------------------------------------|

Quick Ending:
Guitars 1 and 2:
Play this at the end of the 4th Chorus, really fast.
eb|--------------------|
Bb|--------------------|
Gb|--------------------|
Db|--2222-4444---------|
Ab|--2222-4444---------|
Db|--2222-4444---------|

That's it. It should sound pretty accurate. 
Pleas rate it, and comment it.
-[travis]-    

Added On December 16th, 2013

SHARE

Comments

blog comments powered by Disqus

VERSIONS

ADVERTISEMENT