Superjoint Ritual Tabs

Oblivious Maximus

1 versions

TAB

            Oblivious Maximus Tab by Superjoint Ritual


Band- Superjoint Ritual
Song- Oblivious Maximus

unning C# F# B E G# C#


Intro
|-------------------------------------------------------------------|
|-------------------------------------------------------------------|
|-------------------------------------------------------------------|
|-------------------------------------------------------------------|
|-2-2-2-2-2-2-2---1------2------------------------------------------|
|-0-0-0-0-0-0-0-1---1--2---2----------------------------------------|


Riff 1
|-------------------------------------------------------------------|
|-------------------------------------------------------------------|
|-------------------------------------------------------------------|
|-7/8-7/8-7/8------------9/10-9/10----------------------------------|
|-5/6-5/6-5/6-8-7-5------7/-8-7/-8-----8-11-------------------------|
|-------------6-5-3--0-0-----------0-0-6--9-------------------------|


Riff 2
|-------------------------------------------------------------------|
|-------------------------------------------------------------------|
|-------------------------------------------------------------------|
|-----9/10-9/10-----------------------------------------------------|
|-----7/-8-7/-8-----8-11--------------------------------------------|
|-0-0-----------0-0-6--9--------------------------------------------|


Riff 3
|-------------------------------------------------------------------|
|-------------------------------------------------------------------|
|-------------------------------------------------------------------|
|-------------------------------------------------------------------|
|-------------------------------------------------------------------|
|-0-0-0-0-0-0-6-6-6-9-9-9-------------------------------------------|

Riff 4
|-------------------------------------------------------------------|
|-------------------------------------------------------------------|
|-------------------------------------------------------------------|
|-------------------------------------------------------------------|
|-2-2-2-2-2-2-2-2-2-2-2-2--2-2-2-2----------------------------------|
|-0-0-0-0-0-0-0-0-0-0-0-0--0-0-0-0----------------------------------|
  . . . . . . . . . . . .    

Added On December 12th, 2013

SHARE

Comments

blog comments powered by Disqus

ADVERTISEMENT