Superjoint Ritual Tabs

The Horror

1 versions

TAB

            The Horror Tab by Superjoint Ritual


The horror

Riff 1a 

|---------------------|
|---------------------|
|---------------------|
|---------------------|
|-7-7---7-7---7-8-11--|
|-5-5-0-5-5-0-5-6-9---|

Riff 1b

|---------------------|
|---------------------|
|---------------------|
|---------------------|
|-7-7---7-7---7-8-10--|
|-5-5-0-5-5-0-5-6-8---|

Fill

|-------|
|-------|
|-------|
|-------|
|-8-7---|
|-6-5---|

Riff 2

|---------------------|
|---------------------|
|---------------------|
|---------------------|
|-5-4---5-4---5-4-----|
|-3-2---3-2---3-2-----|

Riff 3

|---------------------|
|---------------------|
|---------------------|
|---------------------|
|-4--4--3-------------|              
|-2--2--1-------------|    

Added On December 12th, 2013

SHARE

Comments

blog comments powered by Disqus

ADVERTISEMENT