Swim Deep Tabs

The Sea

1 versions

TAB

            Swim Deep- The Sea

LiamConnolly

Standard Tuning

e|---------------------------------------------------------------------------|
B|--------9-------------7------------2---------------------------------------|
G|-----10---10--------8---8--------3---3-------------------------------------|
D|--11--------------9------------4-------------------------------------------|
A|---------------------------------------------------------------------------|
E|---------------------------------------------------------------------------|

e|---------------------------------------------------------------------------|
B|--------9h11r9--------7------------2---------------------------------------|
G|-----10-------------8---8--------3---3-------------------------------------|
D|--11--------------9------------4-------------------------------------------|
A|---------------------------------------------------------------------------|
E|---------------------------------------------------------------------------|

Chords: C# B  F#

Listen to the song for the strumming pattern    

Added On December 16th, 2013

SHARE

Comments

blog comments powered by Disqus

ADVERTISEMENT