Switchfoot Tabs

Only Hope

4 versions

TAB

            this is THE RIGHT VERSION of how Jon plays Only Hope...ive watched vids and listened to 
versions...so ya here it is:

(figure out the strumming yourself:
http://www.switchfootbootlegs.com.html
the Baltimore and Burlington shows both have recordings of it
http://www.switchfeed.com/2007/02/watch-videos-remaining-songs-from.html
video of it from vancouver (credit to Cookie and Switchfeed.com)

Chord Fingering for verses and out chorus:
|--------------------------3-----3-----3--------------|
|----------0---------------3-----3-----3-----0--------|
|-----7----4---------------0-----0-----0-----4--------|
|-----5----5----7-----4----2-----0-----2-----4--------|
|-----7----5----10----2----3-----2-----3-----2--------|
|----------3----8-----0----------3-----------0--------|

Picking for Verse and Out Chorus: (he slides between the chords...i cant explain it 
tabs but he just kinda flows through it....you dont hit all the notes EXACTLY like im typing 
listen and watch the video to figure it out)
 count//1.....2.......3......4///////1....2.......3.......4//////
|---------------------------------------3-----3-------3---------|
|----------------0----------------------3-----3-------3---0-----|
|---------7------4----------------------0-----0-------0---4-----|
|--------5----------------7-----4------2------0-----------4-----|
|-------7---7\--5-------10-----2-----3------2-----2h3-----2-----|
|-------------3---3-3/8----8/0------------3---------------------|

Chorus: (he just strums through these Chords)
count/1.2.3.4/1.2.3.4/1.2.3.4/1.2.3.4/1.2.3.4/1.2.3.4/
|-----0---0---0-----0-0---0---0---0---0---0---0------------|
|-----0---0---0-----0-0---0---0---0---0---0---0------------|
|-----9---8---6-----8-9---8---6---6---6---6---5------------|
|-----9---9---7-----9-9---9---7---6---7---6---5------------|
|-----7---x---x-----x-7---x---x---4---x---4---3------------|
|-----0---7---5-----7-0---7---5-------5--------------------|

Out Chorus & Verse
Chorus

Out 2nd Chorus:
count//1.......2.......3.........4////////1....2.......3.......4//////
|--------------------------------------------3-----3-------3---------|
|--------------------------------------------3-----3-------3---0-----|
|--------7-7-----4-4-------------------------0-----0-------0---4-----|
|--------5-5-----5-5-----7--7------4-4------2------0-----------4-----|
|------7-----------------10-10-----2-2----3------2-----2h3-----2-----|
|--------------3-------8---------0-------------3---------------------|

Bridge:
count//1.2.3.4/1.2.3.4/1.2.3.4/1.2.3.4/1.2.3.4/1.2.3.4//////////
|------0-------0-------0-------x---0---0---0---0---0-----------|
|------3---0---3---0---3---0---x---0---0---0---0---0-----------|
|------2--h4---2--h4---2--h4---3---4---4---4---4---4-----------|
|------0---x---0---x---0---x---4---4---2---4---2---4-----------|
|------x---2---x---2---x---2---4---2---0---2---0---2-----------|
|------0---x---0---x---0---x---2-------0---2---0---2-----------|

Chorus
Out Chorus

End with  079900

Peace Amigo-gos
Adam (aka faceless_combatant from the boards)    

Added On December 16th, 2013

SHARE

Comments

blog comments powered by Disqus

VERSIONS

ADVERTISEMENT