System Of A Down Tabs

Hezze

1 versions

TAB

            -------------------------------------------------------------------------------
                             HEZZE - System Of A Down
-------------------------------------------------------------------------------
Tabbed by: LehHay95
E-mail: emu1995@gmx.net

This is something Daron used to play live, for the first time in 2002,
and later after the second chorus of "Mr. Jack" in 2005. Pretty easy to play.
Enjoy!
                
Tuning: Drop Db/C#

PART 1 [x2]

eb|---------------------------------------------------------------------------|
Bb|---------------------------------------------------------------------------|
Gb|-------0-2--2-2-2-2---4-2-0-2-2--2-2-2-2---5-4-2-4-2-0-2-0----0------------|
Db|-0-2-4------------------------------------------------------4--4-2-4-2-0---|
Ab|---------------------------------------------------------------------------|
Db|---------------------------------------------------------------------------|

______________________________________________________________________________________

PART 2 [x2]

eb|------------------------------------------|
Bb|------------------------------------------|
Gb|-5/7--5-4-5--2-4-2h4p2h4p0-2-2--2-2-2-2---|
Db|------------------------------------------|
Ab|------------------------------------------|
Db|------------------------------------------|

_______________________________________________________________________________________

PART 3 [x2]

eb|------------------------------------------------------------------|
Bb|---------3-3------------------------------------------------------|
Gb|-2-4-5-4-------0-0-0-2-4-2-5-5---0-0-0-2-4-2-5-4-2-0-5-4-2-0-2-2--|
Db|------------------------------------------------------------------|
Ab|------------------------------------------------------------------|
Db|------------------------------------------------------------------|

_______________________________________________________________________________________

PART 4

eb|---------------------------------------------------------|
Bb|-------------------------------------------------6-5-----|
Gb|-7-7-7-7-7-7-7-7-5--7-7-7-7-7-7-5--7-7-7-7-7-7-5---------|
Db|---------------------------------------------------------|
Ab|---------------------------------------------------------|
Db|---------------------------------------------------------|

eb|------------------------------------------|
Bb|-------------------------------------6-5--|
Gb|-7-7-5-7-7-5-7-7-5-7-7-5-7-7-5-7-7-5------|
Db|------------------------------------------|
Ab|------------------------------------------|
Db|------------------------------------------|

eb|-------------------------------------------------------------|
Bb|-----6-5-----6-5-----6-5-----------6-5-----6-5---------------|
Gb|-7-5-----7-5-----7-5-------7---7-5-----7-5-----7-5-7-5-7-5---|
Db|-------------------------7-----------------------------------|
Ab|-------------------------------------------------------------|
Db|-------------------------------------------------------------|


ENDING [x8]

eb|-------------|
Bb|-------------|
Gb|---7-7---7---|
Db|-7-----7-----|
Ab|-------------|
Db|-------------|



************************************

| /   slide up
| h   hammer-on
| p   pull-off

************************************    

Added On February 14th, 2015

SHARE

Comments

blog comments powered by Disqus

ADVERTISEMENT