System Of A Down Tabs

Highway Song

3 versions

TAB

            System of a Down
Highway Song - acoustic 
Autor: Szalony Szeryf - szalony_szeryf@onet.eu
Standard Tunning

Intro:
   Riff 1  x16				Riff 2  x4
E||-------------------------------|------------------------------|
B||-------------------------------|------------------------------|
G||-5-5---------------------------|--5-5-5-5---5-5-5-------------|
D||-5-5---------------------------|--5-5-------5-5---------------|
A||-3-3---------------------------|--3-3-------3-3---------------|
E||-------------------------------|------------------------------| 


Zwrotka:

c
 I need, I feel, a love,
h
 You love to love the fear,
G
 I never want to be alone,
A#
 I've forgotten to.


   The road...   The clouds...
E||-----------------2-------2--------------|
B||-4---6---4---3----3-----3---------------|
G||--5---5---5---4-----4--4----------------|
D||---5---5---5---4------4-----------------|
A||----------------------------------------|
E||----------------------------------------|

G
 I guess I'll always be at home,
A#
 Do you want me to try,

				
E||-------------------------------------------|
B||-------------------------------------------|
G||-------------------------------------------|
D||---5----5----4----4------------------------|
A||-33-3-33-3-22-2-22-2---5----5----8----8----|
E||---------------------33-3-33-3-66-6-66-6---|

Directing your night.

E||-------------------------------------------|
B||-------------------------------------------|
G||-------------------------------------------|
D||---5----5----4----4------------8-8-8-8-----|
A||-33-3-33-3-22-2-22-2---5----5--8-8-8-8-----|
E||---------------------33-3-33-3-6-6-6-6-----|

c
 An exit lights the sky,
h
 The sky becomes complete.
G
 Traveling hearts divide the throne,
A#
 I've forgotten to.

   Friction...   The highway...
E||-----------------2-------2--------------|
B||-4---6---4---3----3-----3---------------|
G||--5---5---5---4-----4--4----------------|
D||---5---5---5---4------4-----------------|
A||----------------------------------------|
E||----------------------------------------|

G
 The signs are all turning right,
A# 
 Do you want me to try,

E||-------------------------------------------|
B||-------------------------------------------|
G||-------------------------------------------|
D||---5----5----4----4------------------------|
A||-33-3-33-3-22-2-22-2---5----5----8----8----|
E||---------------------33-3-33-3-66-6-66-6---|

Directing your light.

E||-------------------------------------------|
B||-------------------------------------------|
G||-------------------------------------------|
D||---5----5----4----4------------8-8-8-8-----|
A||-33-3-33-3-22-2-22-2---5----5--8-8-8-8-----|
E||---------------------33-3-33-3-6-6-6-6-----|

Want me to try,

E||-------------------------------------------|
B||-------------------------------------------|
G||-------------------------------------------|
D||---5----5----4----4------------------------|
A||-33-3-33-3-22-2-22-2---5----5----8----8----|
E||---------------------33-3-33-3-66-6-66-6---|

Directing your light.

E||-------------------------------------------|
B||-------------------------------------------|
G||-------------------------------------------|
D||---5----5----4----4------------8-8-8-8-----|
A||-33-3-33-3-22-2-22-2---5----5--8-8-8-8-----|
E||---------------------33-3-33-3-6-6-6-6-----|

Solo:

E||----8-10----8---10-8----8-10----8---10-8-----11-10---11---11-10----11-10---11---11-10-|
B||--8-------8---8-------7-------7---7--------9-------9----9--------8-------8----8-------|
G||--------------------------------------------------------------------------------------|
D||--------------------------------------------------------------------------------------|
A||--------------------------------------------------------------------------------------|
E||--------------------------------------------------------------------------------------| x2



   Riff 1  x12			
E||-------------------------------|
B||-------------------------------|
G||-5-5---------------------------|
D||-5-5---------------------------|
A||-3-3---------------------------|
E||-------------------------------|

c	    h
 The purest forms of life,
G	      A#
 Our days are never coming back,
c	     h
 The cannons of our time,
G	      A#
 Our days are never coming back,
c	    h
 The purest forms of life,
G	      A#
 Our days are never coming back,
c	     h
 The cannons of our time,
G	      A#
 Our days are never coming back,

Solo:

E||----8-10----8---10-8----8-10----8---10-8-----11-10---11---11-10----11-10---11---11-10-|
B||--8-------8---8-------7-------7---7--------9-------9----9--------8-------8----8-------|
G||--------------------------------------------------------------------------------------|
D||--------------------------------------------------------------------------------------|
A||--------------------------------------------------------------------------------------|
E||--------------------------------------------------------------------------------------| x4

Riff x4
E||------------------------------|
B||------------------------------|
G||--5-5-5-5---5-5-5-------------|
D||--5-5-------5-5---------------|
A||--3-3-------3-3---------------|
E||------------------------------| 


c:
E||--3-|
B||--4-|
G||--5-|
D||--5-|
A||--4-|
E||--x-|

h:
E||--2-|
B||--3-|
G||--4-|
D||--4-|
A||--3-|
E||--x-|

G:
E||--3-|
B||--3-|
G||--4-|
D||--5-|
A||--5-|
E||--x-|

Ais:
E||--1-|
B||--3-|
G||--3-|
D||--3-|
A||--1-|
E||--x-|    

Added On December 16th, 2013

SHARE

Comments

blog comments powered by Disqus

VERSIONS

ADVERTISEMENT