System Of A Down Tabs

Mind

4 versions

TAB

            System Of A Down
Mind

D|------------------------------------------------------|
A|------------------8--7~----------8--7~----------------|
F|----------------5----5~--------5----5~----------------|
C|------------------------------------------------------|
G|------------------------------------------------------|
C|------------------------------------------------------|

D|---------------5--------------5--------------------------|
A|------7----7-8------------7-8---8-7--------8-7~----------|
F|----5----5--------------5-----------7-5----------7-5~----|
C|---------------------------------------------------------|
G|---------------------------------------------------------|
C|---------------------------------------------------------|

D|----------5--------------5--------------------------|
A|------7-8------------7-8---8-7--------8-7~----------|
F|----5--------------5-----------7-5----------7-5~----|
C|----------------------------------------------------|
G|----------------------------------------------------|
C|----------------------------------------------------|

D|--------------------------------------------------------------|
A|------8---7~------8---7~------8---7------------8---7----------|
F|----5---5-5~----5---5-5~----5---5----7--5----5---5----7--5----|
C|--------------------------------------------------------------|
G|--------------------------------------------------------------|
C|--------------------------------------------------------------|

 x2   P.M............................................................................
D|---------------------------------------------------------------------------------------|
A|----8---7---8---7---8---7---8---7---8---7---8---7---8---7---8---7---8---7---8---7------|
F|------5---5---5---5---5---5---5---5---5---5---5---5---5---5---5---5---5---5---5---5----|
C|---------------------------------------------------------------------------------------|
G|---------------------------------------------------------------------------------------|
C|---------------------------------------------------------------------------------------|

      P.M..............................
D|-----------------------------------------|
A|----8----7--7--8--8--7--7--8--8--7--7----|
F|------5--5--5--5--5--5--5--5--5--5--5----|
C|-----------------------------------------|
G|-----------------------------------------|
C|-----------------------------------------|

      P.M.
D|--------------------------------|
A|----8--8--8--8--8--8---7--------|
F|----5--5--5--5--5--5---5--------|
C|--------------------------------|
G|--------------------------------|
C|--------------------------------|



D|--------------------------------------|
A|--------------------------------------|
F|--------------------------------------|
C|--0-0-0----0-0-0----0-0-0----0-0-0----|
G|--0-0-0----0-0-0----0-0-0----0-0-0----|
C|--0-0-0----0-0-0----0-0-0----0-0-0----|

 x2                  P.M....                   P.M..
D|------------------------------------------------------|
A|------------------------------------------------------|
F|------------------------------------------------------|
C|--0----1-3----0----3-2-1-0--0----1-3----0----3-2-1----|
G|--0----1-3----0----3-2-1-0--0----1-3----0----3-2-1----|
C|--0----1-3----0----3-2-1-0--0----1-3----0----3-2-1----|


D|-----------------------------------------------------14----|
A|-----------12~~~---------12~~~---------12~~~---------------|
F|----12~~~---------12~~~---------12~~~---------12~~~--------|
C|-----------------------------------------------------------|
G|-----------------------------------------------------------|
C|-----------------------------------------------------------|

D|------------------------------------------------------------------------------------------------|
A|-----------12~~~---------12~~~--12b13-----15--13-----15--13-----15--13-----15--13-----15--13----|
F|----12~~~---------12~~~-------------------17---------17---------17---------17---------17--------|
C|------------------------------------------------------------------------------------------------|
G|------------------------------------------------------------------------------------------------|
C|------------------------------------------------------------------------------------------------|


 x4                  P.M....                   P.M..
D|------------------------------------------------------|
A|------------------------------------------------------|
F|------------------------------------------------------|
C|--0----1-3----0----3-2-1-0--0----1-3----0----3-2-1----|
G|--0----1-3----0----3-2-1-0--0----1-3----0----3-2-1----|
C|--0----1-3----0----3-2-1-0--0----1-3----0----3-2-1----|

......free thinkers are dangerous......

 x4 P.M.........
D|--------------------|---------|
A|--------------------|---------|
F|--------------------|---------|
C|--000400300400-6-6--|--6------|
G|--000400300400-6-6--|--6------|
C|--000400300400-6-6--|--6------|

 x4
D|------------------------|
A|------------------------|
F|------------------------|
C|--7-6-7-6-7-6-7-6--7-7--|
G|--7-6-7-6-7-6-7-6--7-7--|
C|--7-6-7-6-7-6-7-6--7-7--|

    P.M...           P.M...           P.M...
D|------------------------------------------------------|
A|------------------------------------------------------|
F|------------------------------------------------------|
C|--300200---0-0-0---300200---0-0-0---300200---0-0-0----|
G|--300200---0-0-0---300200---0-0-0---300200---0-0-0----|
C|--300200---0-0-0---300200---0-0-0---300200---0-0-0----|

 x2                  P.M....                   P.M..
D|------------------------------------------------------|
A|------------------------------------------------------|
F|------------------------------------------------------|
C|--0----1-3----0----3-2-1-0--0----1-3----0----3-2-1----|
G|--0----1-3----0----3-2-1-0--0----1-3----0----3-2-1----|
C|--0----1-3----0----3-2-1-0--0----1-3----0----3-2-1----|


D|------------------------------------------------------------------|
A|------------12--12----------12--12----------12--12----------12----|
F|----12--12----------12--12----------12--12----------12--12--------|
C|------------------------------------------------------------------|
G|------------------------------------------------------------------|
C|------------------------------------------------------------------|

D|----------------------------------------------------------------------------|
A|----------12--12----------12--10--12--10--12--10--12--10--12--10--12--10----|
F|--12--12----------12--12----------------------------------------------------|
C|----------------------------------------------------------------------------|
G|----------------------------------------------------------------------------|
C|----------------------------------------------------------------------------|

D|----------------------------------------------------------------------------------------------------|
A|-12-10-12-10-12-10-12-10-12-10-12-10-12-10-12-10-12-10-12-10-12-10-12-10-12-10-12-10-12-10-12-10----|
F|----------------------------------------------------------------------------------------------------|
C|----------------------------------------------------------------------------------------------------|
G|----------------------------------------------------------------------------------------------------|
C|----------------------------------------------------------------------------------------------------|


 x4                  P.M....                   P.M..
D|------------------------------------------------------|
A|------------------------------------------------------|
F|------------------------------------------------------|
C|--0----1-3----0----3-2-1-0--0----1-3----0----3-2-1----|
G|--0----1-3----0----3-2-1-0--0----1-3----0----3-2-1----|
C|--0----1-3----0----3-2-1-0--0----1-3----0----3-2-1----|

......free thinkers are dangerous......

 x4 P.M.........
D|--------------------|---------|
A|--------------------|---------|
F|--------------------|---------|
C|--000400300400-6-6--|--6------|
G|--000400300400-6-6--|--6------|
C|--000400300400-6-6--|--6------|

 x8
D|------------------------|
A|------------------------|
F|------------------------|
C|--7-6-7-6-7-6-7-6--7-7--|
G|--7-6-7-6-7-6-7-6--7-7--|
C|--7-6-7-6-7-6-7-6--7-7--|

 x1 P.M.................
D|------------------------|
A|------------------------|
F|------------------------|
C|------------------------|
G|------------------------|
C|--7-6-7-6-7-6-7-6--7-7--|

 x2 P.M.......................
D|------------------------------|
A|------------------------------|
F|------------------------------|
C|------------------------------|
G|------------------------------|
C|--7-6-7-6-7-x-7-x-6-7-6--7-7--|

 x1 P.M...................
D|--------------------------|
A|--------------------------|
F|--------------------------|
C|--------------------------|
G|--------------------------|
C|--7-6-7-6-7-x-7-x--6-7-6--|

    P.M................................................
D|---------------------------------------------------------|
A|---------------------------------------------------------|
F|---------------------------------------------------------|
C|---------------------------------------------------------|
G|---------------------------------------------------------|
C|--7--6---7--6----7---6----7---6-----7----6-----7----6----|

    P.M..................................
D|-----------------------------------------|
A|-----------------------------------------|
F|-----------------------------------------|
C|--7-6-7-6-7-6-7-6--7-7--7-6-7-6-7-6-7-6--|
G|--7-6-7-6-7-6-7-6--7-7--7-6-7-6-7-6-7-6--|
C|--7-6-7-6-7-6-7-6--7-7--7-6-7-6-7-6-7-6--|

 x8
D|------------------------|
A|------------------------|
F|------------------------|
C|--7-6-7-6-7-6-7-6--7-7--|
G|--7-6-7-6-7-6-7-6--7-7--|
C|--7-6-7-6-7-6-7-6--7-7--|

DIE

 x4
D|-------------------------------------------------|
A|-------------------------------------------------|
F|-------------------------------------------------|
C|-------------------------------------------------|
G|----------------5---5---4---4---3----------------|
C|-------------------------------------------------|




| /  slide up
| \  slide down
| h  hammer-on
| p  pull-off
| ~  vibrato
| +  harmonic
| x  mute note
| b  bend
| r  release bend
| .  palm mute
===========================================================================
R.G.P.    

Added On December 16th, 2013

SHARE

Comments

blog comments powered by Disqus

VERSIONS

ADVERTISEMENT