System Of A Down Tabs

Suite Pee

8 versions

TAB

            -------------------------------------------------------------------------------
			     Suite-pee - System of a Down
-------------------------------------------------------------------------------
Tabbed by: Darkspear
Email: doctor_m_return@hotmail.com

Album : System of a down, Old school album.
Tuning: CGCFAD

Im sure this is 100% correct, plz rate and comments :D

Intro :

  ++++++++++++     ++++++++++++     ++++++++++++     ++++++++++++
D|--------------------------------------------------------------------------|
A|--------------------------------------------------------------------------|
F|555444334455--------------------------------------------------------------|x2
C|-----------------555444334455----------------------555444334455-----------|
G|----------------------------------555444334455----------------------------|
C|--------------------------------------------------------------------------|

D|---------------------------------------------------------------------------|
A|---------------------------------------------------------------------------|
F|---------------------------------------------------------------------------|x2
C|0-0-0-0-1-0-1----0-0-0-0-1-0-1----0-0-0-0-1-0-1----0-0-0-0-1-0-5\----------|
G|0-0-0-0-1-0-1----0-0-0-0-1-0-1----0-0-0-0-1-0-1----0-0-0-0-1-0-5\----------|
C|0-0-0-0-1-0-1----0-0-0-0-1-0-1----0-0-0-0-1-0-1----0-0-0-0-1-0-5\----------|

Verse1
D|---------------------------------------------------------------------------|
A|---------------------------------------------------------------------------|
F|---------------------------------------------------------------------------|x4
C|------------------------------------------------19~------------------------|
G|---------------------------------------------------------------------------|
C|17-17-17-17-18-17-18----17-1717-17-1717-18-17------------------------------|

Chorus1
D|---------------------------------------------------------------------------|
A|---------------------------------------------------------------------------|
F|---------------------------------------------------------------------------|x2
C|0-0-0-0-1-0-1----0-0-0-0-1-0-1----0-0-0-0-1-0-1----0-0-0-0-1-0-5\----------|
G|0-0-0-0-1-0-1----0-0-0-0-1-0-1----0-0-0-0-1-0-1----0-0-0-0-1-0-5\----------|
C|0-0-0-0-1-0-1----0-0-0-0-1-0-1----0-0-0-0-1-0-1----0-0-0-0-1-0-5\----------|

Verse2
D|---------------------------------------------------------------------------|
A|---------------------------------------------------------------------------|
F|---------------------------------------------------------------------------|x4
C|------------------------------------------------19~------------------------|
G|---------------------------------------------------------------------------|
C|17-17-17-17-18-17-18----17-1717-17-1717-18-17------------------------------|

Chorus2
D|---------------------------------------------------------------------------|
A|---------------------------------------------------------------------------|
F|---------------------------------------------------------------------------|x2
C|0-0-0-0-1-0-1----0-0-0-0-1-0-1----0-0-0-0-1-0-1----0-0-0-0-1-0-5\----------|
G|0-0-0-0-1-0-1----0-0-0-0-1-0-1----0-0-0-0-1-0-1----0-0-0-0-1-0-5\----------|
C|0-0-0-0-1-0-1----0-0-0-0-1-0-1----0-0-0-0-1-0-1----0-0-0-0-1-0-5\----------|

Bass break :
D|-----------------------------------------------------------------------------------|
A|-----------------------------------------------------------------------------------|
F|-----------------------------------------------------------------------------------|
C|-----------------------------------------------------------------------------------|
G|-----------------------------------------------------------------------------------|
C|0-1-0--0--5-4----------------------------------------------------------------------|

Break :
D|---------------------------------------------------------------------------|
A|---------------------------------------------------------------------------|
F|-------------------------------------------------------------pm------------|
C|0-1-0---5-4------0-1-0---5-4------0-1-0---5-4------0-1-0---5-4-------------|
G|0-1-0---5-4------0-1-0---5-4------0-1-0---5-4------0-1-0---5-4-------------|
C|0-1-0---5-4------0-1-0---5-4------0-1-0---5-4------0-1-0---5-4-------------|

Start Palm Muting for crunchy sound.
D|---------------------------------------------------------------------------|
A|---------------------------------------------------------------------------|
F|pm---------------pm---------------pm---------------pm----------------------|
C|------------------------------------------------------------------5--4~----|
G|0-1-0--0--5-4----0-1-0--0--5-4----0-1-0--0--5-4----0-1-0---5-4-------------|
C|0-1-0--0--5-4----0-1-0--0--5-4----0-1-0--0--5-4----0-1-0---5-4-------------|

D|---------------------------------------------------------------------------|
A|---------------------------------------------------------------------------|
F|pm---------------pm---------------pm---------------------------------------|
C|-------------------------------------------------------------Lr------------|
G|0-1-0--0--5-4----0-1-0--0--5-4----0-1-0--0--5-4----0-1-0---5-4-------------|
C|0-1-0--0--5-4----0-1-0--0--5-4----0-1-0--0--5-4----0-1-0---5-4-------------|

Hard Sound
D|---------------------------------------------------------------------------|
A|---------------------------------------------------------------------------|
F|---------------------------------------------------------------------------|
C|0-1-0--0--5-4------0-1-0--0--5-4------0-1-0--0--5-4------0-1-0--0--5-4---4\|
G|0-1-0--0--5-4------0-1-0--0--5-4------0-1-0--0--5-4------0-1-0--0--5-4---4\|
C|0-1-0--0--5-4------0-1-0--0--5-4------0-1-0--0--5-4------0-1-0--0--5-4---4\|

D|---------------------------------------------------------------------------|
A|---------------------------------------------------------------------------|
F|-----------------------------------+--------------------+------------------|
C|0-1-0--0--5-4--4----0-1-0--0--5-4--4~----0-1-0--0--5-4--4----0-1-0--0--5-4-|
G|-------------------------------------------------------------------------4-|
C|-------------------------------------------------------------------------4-|

Final Chorus
D|---------------------------------------------------------------------------|
A|---------------------------------------------------------------------------|
F|---------------------------------------------------------------------------|x2
C|0-0-0-0-1-0-1----0-0-0-0-1-0-1----0-0-0-0-1-0-1----0-0-0-0-1-0-5\----------|
G|0-0-0-0-1-0-1----0-0-0-0-1-0-1----0-0-0-0-1-0-1----0-0-0-0-1-0-5\----------|
C|0-0-0-0-1-0-1----0-0-0-0-1-0-1----0-0-0-0-1-0-1----0-0-0-0-1-0-5\----------|


D|-----------------------------------------------|
A|-----------------------------------------------|
F|-----------------------------------------------|x4
C|------------------------19~--------------------|
G|-----------------------------------------------|
C|17-17-17-17-18-17------------------------------|

Outro :
D|-----------------------------------------------|
A|-----------------------------------------------|
F|-----------------------------------------------|x3
C|--------------------------19~------------------|
G|-----------------------------------------------|
C|17-1717-17-1717-18-17--------------------------|

D|-----------------------------------------------|
A|-----------------------------------------------|
F|-----------------------------------------------|
C|---------111-1---------------------------------|
G|---------111-1---------------------------------|
C|17-1717--111-1---------------------------------|


Thank you, plz rate this tab :P or any comments is apreciated :D

|pm  Palm Muting
|Lr  Let ring
| /  slide up
| \  slide down
| h  hammer-on
| p  pull-off
| ~  vibrato
| +  harmonic
| x  Mute note
===============================================================================    

Added On December 16th, 2013

SHARE

Comments

blog comments powered by Disqus