Takida Tabs

Curly Sue

5 versions

TAB

            Takida - Curly Sue

Tabbed by Jonas (jonis123@hotmail.com)

Standard Tuning

INTRO (Piano) 0:00-0:19

e-----------7-------------7-5----|
B---5-4-5---------5-4-5----------|
G-6-------6-----2-------6--------|
D--------------------------------|
A--------------------------------|
D--------------------------------|Repeat this until the Chorus

VERSE (same riff as Intro)

e-----------7-------------7-5----|
B---5-4-5---------5-4-5----------|
G-6-------6-----2-------6--------|
D--------------------------------|
A--------------------------------|
D--------------------------------|

Lyrics on Verse:

Your strenght is so hard to find, I feel som much stronger now,
the feeling´s alright / Your words make me whole again, those eyes cannot ever lie, 
so divine / I´m not ever alone, you´re not ever alone!

CHORUS

e---------------------------------------|
B---------------------------------------|
G-----6-----------4-----------------4---|
D---6----------4-----------7------4-----|
A-4----------2------------7-----2-------|
D------------------------5--------------|


For comments contact me, jonis123@hotmail.com    

Added On December 16th, 2013

SHARE

Comments

blog comments powered by Disqus

VERSIONS

ADVERTISEMENT