Tales Of Legendia Tabs

Boss Theme Drum

1 versions

TAB

            Tales of Legendia Boss Battle Theme

(I'll add more as I tab it all out)

Legend:
A= Hold Note

Guitar 1 (Plays the same tune throughout the song)
E|------------------------------|
B|------------------------------|
G|------------------------------|
D|------------------------------|
A|------------------------------|
E|-5-0-5-7-0-7-8-0-8-10-8-7-5-3-| x17

==================================================|

Guitar 2 (Plays Background throughout the song)

[P. 1-Matching Rhythm as Guitar 1]

E|-5-0-5-7-0-7-5-0-7-8-10-8-7-5-|
B|------------------------------|
G|------------------------------|
D|------------------------------|
A|------------------------------|
E|------------------------------| x2

[P. 2-Rhythm Low]

E|--------------|-------------------|-------------|
B|--------------|-------------------|-------------|
G|--------------|-------------------|-------------|
D|--------------|-------------------|-------------|
A|-----3-5-7-10A|-15-13-11-10-8h9p8A|-13-11-14-11A|
E|-3-3----------|-------------------|-------------|

[P. 3-Rhythm High]

E|-----3-5-7-10A|-15-13-11-10-8h9p8A|-13-11-14-11A|
B|-3-3----------|-------------------|-------------|
G|--------------|-------------------|-------------|
D|--------------|-------------------|-------------|
A|--------------|-------------------|-------------|
E|--------------|-------------------|-------------|

[TBC]    

Added On December 16th, 2013

SHARE

Comments

blog comments powered by Disqus

ADVERTISEMENT