Tame Impala Tabs

Flow

1 versions

TAB

            Tame Impala
'Flow'

First of all, Tame Impala play their songs in D Tuning which is 1 full
step below Standard. I however, have tabbed this in standard tuning for
your convenience but be warned it may not sound as good as the band!
Also, a lot of people wanted this tab, so please rate it!

INTRO & VERSE:

E|----------------|
B|-3--3-3--1/3--1-|
G|-4--4-4--2/4--2-|
D|-5--5-5--3/5--3-| x8
A|-5--5-5--3/5--3-|
E|----------------|

VERSE VARIATION:
(After 1st Chorus)

E|-------------|
B|-3---3-1/3-1-|
G|-3---4-2/4-2-|
D|-3---5-3/5-3-| x1
A|-1---5-3/5-3-|
E|-------------|

VERSE VARIATION 2:

E|----------------x-x-xxxx-|
B|-3--3-3--1/3--1-x-x-xxxx-|
G|-4--4-4--2/4--2-x-x-xxxx-|
D|-5--5-5--3/5--3-x-x-xxxx-|
A|-5--5-5--3/5--3-x-x-xxxx-|
E|----------------x-x-xxxx-|


CHORUS:

E|-------------------------------------------------------|
B|-3--3-3-3--3-3-x7x7x7x7x7h8p7-5--5--5-5-5-5-5-5-5-5-5-5|
G|-3--3-3-3--3-3-x7x7x7x7x7h8p7-5--5--5-5-5-5-5-5-5-5-5-5|
D|-3--3-3-3--3-3-x7x7x7x7x7h8p7-5--5--5-5-5-5-5-5-5-5-5-5|
A|-------------------------------------------------------|
E|-------------------------------------------------------|


CHORUS VARIATION 1:

E|-------------------------------------------------------|
B|-3--3-3-3--3-3-x7x7x7x7x7h8p7-5--5--5-5-5-5-6-5-6-5-6-5|
G|-3--3-3-3--3-3-x7x7x7x7x7h8p7-5--5--5-5-5-5-5-5-5-5-5-5|
D|-3--3-3-3--3-3-x7x7x7x7x7h8p7-5--5--5-5-5-5-5-5-5-5-5-5|
A|-------------------------------------------------------|
E|-------------------------------------------------------|

CHORUS VARIATION 2:

E|-------------------------------------------------------|
B|-3--3-3-3--3-3-x7x7x7x7x7h8p7-5--5--5-5-5-5-7-7-7-5-5-5|
G|-3--3-3-3--3-3-x7x7x7x7x7h8p7-5--5--5-5-5-5-7-7-7-5-5-5|
D|-3--3-3-3--3-3-x7x7x7x7x7h8p7-5--5--5-5-5-5-7-7-7-5-5-5|
A|-------------------------------------------------------|
E|-------------------------------------------------------|

AFTER 2nd CHORUS:

E|---|---|
B|-3-|-4-|
G|-3-|-5-|
D|-3-|-6-|
A|---|-6-|
E|---|---|

SOLO:
(Rhythm)

E|---|
B|-4-|
G|-5-|
D|-6-|
A|-6-|
E|---|

(Lead)

E|------------------------------------------------|
B|---------------0--------------------------------|
G|---------------0--------------------------------|
D|-11-----11b13--0-10---10b11--10/16--16b18--13\0-|
A|------------------------------------------------|
E|------------------------------------------------|



E|---------------------------------------------------------|
B|---------------------------------------------------------|
G|-------------------14hb-15b17r15-15/20-20\17-17b18r17----|
D|-10hb-11fb--16b18----------------------------------------|
A|---------------------------------------------------------|
E|---------------------------------------------------------|



E|--------------------|
B|--------------------|
G|-17b18---20\8--8/13-|
D|--------------------|
A|--------------------|
E|--------------------|

BRIDGE:
(Rhythm)

E|---------------|
B|-6---4---2--/4-|
G|-6---5---3--/5-|
D|-6---6---4--/6-|
A|-4---6---4--/6-|
E|---------------|

BRIDGE VARIATION:

E|---------------------------|
B|-6---4---2---4---2-2-2-2/4-|
G|-6---5---3---5---3-3-3-3/5-|
D|-6---6---4---6---4-4-4-4/6-|
A|-4---6---4---6---4-4-4-4/6-|
E|---------------------------|

(Bridge Lead)

E|----------------------------------------------|
B|--------------------------------------------4-|
G|-13----------------------------18/20--18-17-5~|
D|-----13--13/15--13/15\13-16\13----------------|
A|----------------------------------------------|
E|----------------------------------------------|


KEY:
(/)Slide Up
(\)Slide Down
(~)Vibrato
(hb)Half Bend
(fb)Full Bend
(b)Bend
(h)Hammer-on
(p)Pull-off
(r)Release
(x)Mute

The solo may sound a bit off but it's the best I could do from what I could
hear, it's mainly just improvised bends and slides high up the neck.
Let me know what ya think in the comments folks, cheers!    

Added On December 16th, 2013

SHARE

Comments

blog comments powered by Disqus

ADVERTISEMENT