Tears For Fears Tabs

The Hurting

1 versions

TAB

            Artist:     Tears For Fears
Song:       The Hurting
Album:      The Hurting
Tabbed by:  Wiktor R. Kolowiecki
E-mail:     variat11@gmail.com

Intro:

Guitar:
E|---------4-------------|
B|-----6-----------4-----|
G|-6-4---4-----4-------4-|
D|---------------4---4---|
A|-----------------------|
E|-----------------------|
                                                           x2
Bass:
G|------------------------------------------------------|
D|------------------------------------------------------|
A|------------------------------------------------------|
E
E
e |---|---|---|---|---|
B |---|---|---|---|---|
G |-x-|---|---|---|---|
D |---|-x-|---|---|---|
A |---|-x-|---|---|---|
E |---|---|---|---|---|
|-9-9-9-9-9-9-9-9-9-9-9-9-7-7-7-7-7-7-4-4-4-4-4-7-11-7-| Verse: C#
C#
e |-x-|---|---|---|---|
B |---|-x-|---|---|---|
G |-x-|---|---|---|---|
D |---|---|-x-|---|---|
A |---|---|---|-x-|---|
E |---|---|---|---|---|
B
B
e |---|-x-|---|---|---|
B |---|---|---|-x-|---|
G |---|---|---|-x-|---|
D |---|---|---|-x-|---|
A |---|-x-|---|---|---|
E |---|-x-|---|---|---|
Is it an horrific dream G#m
G#m
e |-x-|---|---|---|---|
B |-x-|---|---|---|---|
G |-x-|---|---|---|---|
D |---|---|-x-|---|---|
A |---|---|-x-|---|---|
E |-x-|---|---|---|---|
Am I sinking fast C#
C#
e |-x-|---|---|---|---|
B |---|-x-|---|---|---|
G |-x-|---|---|---|---|
D |---|---|-x-|---|---|
A |---|---|---|-x-|---|
E |---|---|---|---|---|
B
B
e |---|-x-|---|---|---|
B |---|---|---|-x-|---|
G |---|---|---|-x-|---|
D |---|---|---|-x-|---|
A |---|-x-|---|---|---|
E |---|-x-|---|---|---|
Could a person be so mean G#m
G#m
e |-x-|---|---|---|---|
B |-x-|---|---|---|---|
G |-x-|---|---|---|---|
D |---|---|-x-|---|---|
A |---|---|-x-|---|---|
E |-x-|---|---|---|---|
As to laugh and laugh PreChorus: G
G
e |---|---|-x-|---|---|
B |---|---|---|---|---|
G |---|---|---|---|---|
D |---|---|---|---|---|
A |---|-x-|---|---|---|
E |---|---|-x-|---|---|
On my own F#
F#
e |---|-x-|---|---|---|
B |---|-x-|---|---|---|
G |---|---|-x-|---|---|
D |---|---|---|-x-|---|
A |---|---|---|-x-|---|
E |---|-x-|---|---|---|
Could you ease my load F
F
e |-x-|---|---|---|---|
B |-x-|---|---|---|---|
G |---|-x-|---|---|---|
D |---|---|-x-|---|---|
A |---|---|-x-|---|---|
E |-x-|---|---|---|---|
Could you see my Pain F#
F#
e |---|-x-|---|---|---|
B |---|-x-|---|---|---|
G |---|---|-x-|---|---|
D |---|---|---|-x-|---|
A |---|---|---|-x-|---|
E |---|-x-|---|---|---|
Could you please explain The Hurting (Intro x2) Verse2: Could you understand a child When he cries in Pain Could you give him all he needs Or do you feel the same Prechorus: All along You've been told you're wrong When you feel it right And you're left to fight The Hurting Chorus: C#
C#
e |-x-|---|---|---|---|
B |---|-x-|---|---|---|
G |-x-|---|---|---|---|
D |---|---|-x-|---|---|
A |---|---|---|-x-|---|
E |---|---|---|---|---|
B
B
e |---|-x-|---|---|---|
B |---|---|---|-x-|---|
G |---|---|---|-x-|---|
D |---|---|---|-x-|---|
A |---|-x-|---|---|---|
E |---|-x-|---|---|---|
G#m
G#m
e |-x-|---|---|---|---|
B |-x-|---|---|---|---|
G |-x-|---|---|---|---|
D |---|---|-x-|---|---|
A |---|---|-x-|---|---|
E |-x-|---|---|---|---|
C#
C#
e |-x-|---|---|---|---|
B |---|-x-|---|---|---|
G |-x-|---|---|---|---|
D |---|---|-x-|---|---|
A |---|---|---|-x-|---|
E |---|---|---|---|---|
The Hurt... hurt... hurt... B
B
e |---|-x-|---|---|---|
B |---|---|---|-x-|---|
G |---|---|---|-x-|---|
D |---|---|---|-x-|---|
A |---|-x-|---|---|---|
E |---|-x-|---|---|---|
G#m
G#m
e |-x-|---|---|---|---|
B |-x-|---|---|---|---|
G |-x-|---|---|---|---|
D |---|---|-x-|---|---|
A |---|---|-x-|---|---|
E |-x-|---|---|---|---|
G
G
e |---|---|-x-|---|---|
B |---|---|---|---|---|
G |---|---|---|---|---|
D |---|---|---|---|---|
A |---|-x-|---|---|---|
E |---|---|-x-|---|---|
F#
F#
e |---|-x-|---|---|---|
B |---|-x-|---|---|---|
G |---|---|-x-|---|---|
D |---|---|---|-x-|---|
A |---|---|---|-x-|---|
E |---|-x-|---|---|---|
F
F
e |-x-|---|---|---|---|
B |-x-|---|---|---|---|
G |---|-x-|---|---|---|
D |---|---|-x-|---|---|
A |---|---|-x-|---|---|
E |-x-|---|---|---|---|
F#
F#
e |---|-x-|---|---|---|
B |---|-x-|---|---|---|
G |---|---|-x-|---|---|
D |---|---|---|-x-|---|
A |---|---|---|-x-|---|
E |---|-x-|---|---|---|
the hurt... hurt... hurt... Bridge: Am
Am
e |---|---|---|---|---|
B |-x-|---|---|---|---|
G |---|-x-|---|---|---|
D |---|-x-|---|---|---|
A |---|---|---|---|---|
E |---|---|---|---|---|
Bb
Bb
e |---|---|---|---|---|
B |---|---|-x-|---|---|
G |---|---|-x-|---|---|
D |---|---|-x-|---|---|
A |-x-|---|---|---|---|
E |---|---|---|---|---|
Fmaj7
Fmaj7
e |---|---|---|---|---|
B |-x-|---|---|---|---|
G |---|-x-|---|---|---|
D |---|---|-x-|---|---|
A |---|---|---|---|---|
E |-x-|---|---|---|---|
G
G
e |---|---|-x-|---|---|
B |---|---|---|---|---|
G |---|---|---|---|---|
D |---|---|---|---|---|
A |---|-x-|---|---|---|
E |---|---|-x-|---|---|
Am
Am
e |---|---|---|---|---|
B |-x-|---|---|---|---|
G |---|-x-|---|---|---|
D |---|-x-|---|---|---|
A |---|---|---|---|---|
E |---|---|---|---|---|
Get in line with the things you know Bb
Bb
e |---|---|---|---|---|
B |---|---|-x-|---|---|
G |---|---|-x-|---|---|
D |---|---|-x-|---|---|
A |-x-|---|---|---|---|
E |---|---|---|---|---|
Feel the Pain Feel the sorrow Fmaj7
Fmaj7
e |---|---|---|---|---|
B |-x-|---|---|---|---|
G |---|-x-|---|---|---|
D |---|---|-x-|---|---|
A |---|---|---|---|---|
E |-x-|---|---|---|---|
Touch the hurt and don't let go G
G
e |---|---|-x-|---|---|
B |---|---|---|---|---|
G |---|---|---|---|---|
D |---|---|---|---|---|
A |---|-x-|---|---|---|
E |---|---|-x-|---|---|
don't let go, don't let go Am
Am
e |---|---|---|---|---|
B |-x-|---|---|---|---|
G |---|-x-|---|---|---|
D |---|-x-|---|---|---|
A |---|---|---|---|---|
E |---|---|---|---|---|
Get in line with the things you know Bb
Bb
e |---|---|---|---|---|
B |---|---|-x-|---|---|
G |---|---|-x-|---|---|
D |---|---|-x-|---|---|
A |-x-|---|---|---|---|
E |---|---|---|---|---|
Learn to cry Like a baby Fmaj7
Fmaj7
e |---|---|---|---|---|
B |-x-|---|---|---|---|
G |---|-x-|---|---|---|
D |---|---|-x-|---|---|
A |---|---|---|---|---|
E |-x-|---|---|---|---|
Then the hurting won't come back G
G
e |---|---|-x-|---|---|
B |---|---|---|---|---|
G |---|---|---|---|---|
D |---|---|---|---|---|
A |---|-x-|---|---|---|
E |---|---|-x-|---|---|
F#
F#
e |---|-x-|---|---|---|
B |---|-x-|---|---|---|
G |---|---|-x-|---|---|
D |---|---|---|-x-|---|
A |---|---|---|-x-|---|
E |---|-x-|---|---|---|
And I'm back, and I'm back Chorus(only bass): C#
C#
e |-x-|---|---|---|---|
B |---|-x-|---|---|---|
G |-x-|---|---|---|---|
D |---|---|-x-|---|---|
A |---|---|---|-x-|---|
E |---|---|---|---|---|
B
B
e |---|-x-|---|---|---|
B |---|---|---|-x-|---|
G |---|---|---|-x-|---|
D |---|---|---|-x-|---|
A |---|-x-|---|---|---|
E |---|-x-|---|---|---|
G#m
G#m
e |-x-|---|---|---|---|
B |-x-|---|---|---|---|
G |-x-|---|---|---|---|
D |---|---|-x-|---|---|
A |---|---|-x-|---|---|
E |-x-|---|---|---|---|
C#
C#
e |-x-|---|---|---|---|
B |---|-x-|---|---|---|
G |-x-|---|---|---|---|
D |---|---|-x-|---|---|
A |---|---|---|-x-|---|
E |---|---|---|---|---|
The Hurt... hurt... hurt... x2 (then): C#
C#
e |-x-|---|---|---|---|
B |---|-x-|---|---|---|
G |-x-|---|---|---|---|
D |---|---|-x-|---|---|
A |---|---|---|-x-|---|
E |---|---|---|---|---|
B
B
e |---|-x-|---|---|---|
B |---|---|---|-x-|---|
G |---|---|---|-x-|---|
D |---|---|---|-x-|---|
A |---|-x-|---|---|---|
E |---|-x-|---|---|---|
G#m
G#m
e |-x-|---|---|---|---|
B |-x-|---|---|---|---|
G |-x-|---|---|---|---|
D |---|---|-x-|---|---|
A |---|---|-x-|---|---|
E |-x-|---|---|---|---|
C#
C#
e |-x-|---|---|---|---|
B |---|-x-|---|---|---|
G |-x-|---|---|---|---|
D |---|---|-x-|---|---|
A |---|---|---|-x-|---|
E |---|---|---|---|---|
(is it an horrific dream) The Hurt... hurt... hurt... x5 (intro guitar riff starts from 3rd time) C#
C#
e |-x-|---|---|---|---|
B |---|-x-|---|---|---|
G |-x-|---|---|---|---|
D |---|---|-x-|---|---|
A |---|---|---|-x-|---|
E |---|---|---|---|---|
B
B
e |---|-x-|---|---|---|
B |---|---|---|-x-|---|
G |---|---|---|-x-|---|
D |---|---|---|-x-|---|
A |---|-x-|---|---|---|
E |---|-x-|---|---|---|
G#m
G#m
e |-x-|---|---|---|---|
B |-x-|---|---|---|---|
G |-x-|---|---|---|---|
D |---|---|-x-|---|---|
A |---|---|-x-|---|---|
E |-x-|---|---|---|---|
G
G
e |---|---|-x-|---|---|
B |---|---|---|---|---|
G |---|---|---|---|---|
D |---|---|---|---|---|
A |---|-x-|---|---|---|
E |---|---|-x-|---|---|
F#
F#
e |---|-x-|---|---|---|
B |---|-x-|---|---|---|
G |---|---|-x-|---|---|
D |---|---|---|-x-|---|
A |---|---|---|-x-|---|
E |---|-x-|---|---|---|
F
F
e |-x-|---|---|---|---|
B |-x-|---|---|---|---|
G |---|-x-|---|---|---|
D |---|---|-x-|---|---|
A |---|---|-x-|---|---|
E |-x-|---|---|---|---|
F#
F#
e |---|-x-|---|---|---|
B |---|-x-|---|---|---|
G |---|---|-x-|---|---|
D |---|---|---|-x-|---|
A |---|---|---|-x-|---|
E |---|-x-|---|---|---|
(is it an horrific dream) The Hurt... hurt... hurt... G
G
e |---|---|-x-|---|---|
B |---|---|---|---|---|
G |---|---|---|---|---|
D |---|---|---|---|---|
A |---|-x-|---|---|---|
E |---|---|-x-|---|---|
F#
F#
e |---|-x-|---|---|---|
B |---|-x-|---|---|---|
G |---|---|-x-|---|---|
D |---|---|---|-x-|---|
A |---|---|---|-x-|---|
E |---|-x-|---|---|---|
F
F
e |-x-|---|---|---|---|
B |-x-|---|---|---|---|
G |---|-x-|---|---|---|
D |---|---|-x-|---|---|
A |---|---|-x-|---|---|
E |-x-|---|---|---|---|
F#
F#
e |---|-x-|---|---|---|
B |---|-x-|---|---|---|
G |---|---|-x-|---|---|
D |---|---|---|-x-|---|
A |---|---|---|-x-|---|
E |---|-x-|---|---|---|
- repeat till fade Fmaj7 - x03210 or x33210 or 133210 -(if it's possible :) I love this song, enjoy ! Lublin, Poland 19.V.2008

Added On December 16th, 2013

SHARE

Comments

blog comments powered by Disqus

ADVERTISEMENT