Ted Nugent Tabs

Cat Scratch Fever

7 versions

TAB

            Cat Scratch Fever Tab by Ted Nugent


Artist: Ted Nugent
Title: Cat Scratch Fever
Album: Cat Scratch Fever
Transcribed by: Brian Van Maurik (vanmaurik@hotmail.com)


-|-----|---------------------------------------------|-------|----------------
-|-2---|---------------------------------------------|-------|----------------
-|-4br-|-2---4---5-5---2-4-5---2---4---5-5---5-4---2-|-------|----------------
-|-----|-2---4---5-5---2-4-5---2---4---5-5---5-4---2-|-------|----------------
-|-----|---0---0-----------------0---0-----------0---|-------|----------------
-|-----|---------------------------------------------|-0-3-4-|----------------
   intro/main/chorus                                   fill                   

-|------------------------3--2--0-----------------|---------------------------
-|------------------------0--3--2-----------------|---------------------------
-|-22-44-22-55-22-5-2-----0--2--2-----------------|---------------------------
-|-22-44-22-55-22-5-2-----0--0--2-----------------|---------------------------
-|--------------------034-2-----0--034------------|---------------------------
-|------------------------3-----------------------|---------------------------
   verse (some muted open A's may be in there...)                             

-|-------------|--------------------------------------------------------------
-|-------------|--------------------------------------------------------------
-|-8-----5-----|--------------------------------------------------------------
-|-8-----5-----|--------------------------------------------------------------
-|-6-----3-----|--------------------------------------------------------------
-|-------------|--------------------------------------------------------------
   bridge    

Added On December 12th, 2013

SHARE

Comments

blog comments powered by Disqus