Tegan And Sara Tabs

Wake Up Exhausted

1 versions

TAB

            Artist: Tegan and Sara
Song: Wake Up Exhausted
Album: So Jealous
Tuning: Standard





Intro/Verse: 

e---x---x---x---x---| 
B---x---x---x---x---| 
G---7---7---8---10--| 
D---8---8---8---10--| 
A---8---8---6---8---| 
E---6---5---x-------| 


Chorus: 
"are you alright...." 

e---x---x---| 
B---x---x---| 
G---8---7---| 
D---8---8---| 
A---6---5---| 
E---x---x---| 

It basically just alternates between those two guitar parts. 

The little second guitar part that plays in between the chorus and verses is: 


e---------------| 
B---------------| 
G---------------| 
D---------------| 
A---------------| 
E---5--6--13----|Artist: Tegan and Sara
Song: Wake Up Exhausted
Album: So Jealous
Tuning: Standard
Tabbed: sodivided and Christophjam




Intro/Verse: 

e---x---x---x---x---| 
B---x---x---x---x---| 
G---7---7---8---10--| 
D---8---8---8---10--| 
A---8---8---6---8---| 
E---6---5---x-------| 


Chorus: 
"are you alright...." 

e---x---x---| 
B---x---x---| 
G---8---7---| 
D---8---8---| 
A---6---5---| 
E---x---x---| 

It basically just alternates between those two guitar parts. 

The little second guitar part that plays in between the chorus and verses is: 


e---------------| 
B---------------| 
G---------------| 
D---------------| 
A---------------| 
E---5--6--13----|

Lyrics:

I wake up exhausted it's not morning
it's back to sleep to re-dream me
we're alone and we're happy
but there you are, angry with me

are you alright? I can stand up straight
are you alright? can you get me off your mind

I hated this city before you came here
so let go and move on
we're strangers, we're not friends
I hate this and I hate them
this city's exhausted and it's wound up
soon to be a place that's just filled up
and I found out that you're angry
and you're sorry you ever met me

are you alright? I can stand up straight
are you alright? can you get me off your mind
I am alright, I can stand up straight
are you alright? can you get me off your mind

I wake up exhausted it's not morning
it's back to sleep to re-dream me
we're alone and we're happy
but there you are, angry with me

are you alright? I can stand up straight
I am alright, I can  get you off my mind

I am alright, I can stand up straight
I am alright, can you get me off your mind?
can you get me off your mind?
can you get me off your mind?
can you get me off your mind?
can you get me off your mind?    

Added On December 16th, 2013

SHARE

Comments

blog comments powered by Disqus

ADVERTISEMENT