Television Tabs

Rock Lobster

1 versions

TAB

            Capo 1st Fret




|------------------| countinue until the chorus
|-------------000--|
|---2--3------111--|
|---2--3-3032-222--|
|--0--3-------222--|
|------------------|


|---------------------|
|--8--7--8--7----7-7-8|
|-------------8-8-8---|
|---------------------|
|---------------------|
|---------------------|    

Added On December 16th, 2013

SHARE

Comments

blog comments powered by Disqus

ADVERTISEMENT