Ten East Tabs

Where The Hunted Hide

1 versions

TAB

            Ten East - Where the hunted hide

Tuning: Drop D

e|--------------------------------------------------------------------------|
B|--------------------------------------------------------------------------|
G|------------------------------------0----0------0-----0-------------------|
D|-----------0-2-3-2----------------0----0------0-----0---------------------|
A|-----0-2-3---------3-2-0-2-3----7----5------7----10-----------------------|
D|-0-3----------------------------------------------------------------------|

e|--------------------------------------------------------------------------|
B|--------------------------------------------------------------------------|
G|------------------------12-12-12-11--11-11-11-----------------------------|
D|-12-12-12-11--11-11-11--0--0--0--0---0--0--0------------------------------|
A|-0--0--0--0---0--0--0-----------------------------------------------------|
D|--------------------------------------------------------------------------|


e|--------------------------------------------------------------------------|
B|--------------------------------------------------------------------------|
G|--------------------------------------------------------------------------|
D|--------------------------------------------------------------------------|
A|--------------------------------------------------------------------------|
D|-12-12-12-10--10-10---8-8-8-7--7-7---5-5-5-4--4-4---3-3-3-2--2-2----------|

http://www.myspace.com/teneast    

Added On December 16th, 2013

SHARE

Comments

blog comments powered by Disqus

ADVERTISEMENT