Ten Years After Tabs

I Woke Up This Morning

1 versions

TAB

            I Woke Up This Morning Tab by Ten Years After


Ten Years After - I Woke Up This Morning - The Essential Ten Years After Collection.

I've tab this song by listening. I think there are many things to change, so you're welcome to do that.
A very cool song to play with your friends and for the girls. :)

e|-------------------------|------------|--------------------|-------------------|
b|-----10^(12)----10--8~\--|------------|------------8-------|-------------------|
g|--/9---------9-----------|------------|---------7-----9~\--|-------------------|
d|-------------------------|--9--7--9\--|--/7--9-------------|--9--7--9\---------|
a|-------------------------|--7--5--7\--|--------------------|--7--5--7\---------|
D|-------------------------|------------|--------------------|-------------------|

e|------------------------|------------|----------------------------|------------|
b|----10^(12)----10--8~\--|------------|-------8--------------------|------------|
g|-/9---------9-----------|------------|----------9--7--------------|------------|
d|------------------------|--9--7--9\--|--7--9----------9--7--------|--9--7--9\--|
a|------------------------|--7--5--7\--|----------------------10p7--|--7--5--7\--|
D|------------------------|------------|----------------------------|------------|

Right After Say: "I woke up this morning..."

like:
morning...
e|-------------------|-------------------------|------------|--------------------|
b|-------------------|-----10^(12)----10--8~\--|------------|------------8-------|
g|--7-9----9--7--9\--|--/9---------9-----------|--9--7--9\--|----------7----9~\--|
d|--5-7----7--5--7\--|-------------------------|--7--5--7\--|--7h9-7h9-----------|
a|-------------------|-------------------------|------------|--------------------|
D|-------------------|-------------------------|------------|--------------------|
    							     my baby was gone...

e|--------------|---------------------|--------------|
b|--------------|-------------8-------|--------------|
g|--------------|----------7-----9~\--|--------------|
d|--9--7--9\----|--7h9-7h9------------|--9--7--9\----|
a|--7--5--7\----|---------------------|--7--5--7\----|
D|--------------|---------------------|--------------|

e|------------------|--------------|--------------------------|
b|------------------|--------------|--This part is just too---|
g|------------------|--------------|--hard for me, so if------|
d|------------------|--9--7--9\----|--someone can help me-----|
a|--------5-6-7\----|--7--5--7\----|--with this...------------|
D|--5--7------------|--------------|--------------------------|
 I woke up this morning...

e|--------------|---------------------|--------------|---------------------|
b|--------------|-------------8-------|--------------|-------------8-------|
g|--------------|----------7-----9~\--|--------------|----------7-----9~\--|
d|--9--7--9\----|--7h9-7h9------------|--9--7--9\----|--7h9-7h9------------|
a|--7--5--7\----|---------------------|--7--5--7\----|---------------------|
D|--------------|---------------------|--------------|---------------------|
		 my baby was gone...

e|--------------|---------------------------------------------------|--------------|
b|--------------|---------------------------------------------------|--12---12-\---|
g|--------------|---------------------------------------------------|--14^--14^\---|
d|--9--7--9\----|--9--9--0--9---------------------------------------|--------------|
a|--7--5--7\----|--7--7--0--7---9-9-9-9-9-9-9-9-9-9-9--8--7-7-7-7---|--------------|
D|--------------|---------------7-7-7-7-7-7-7-7-7-7-7--6--5-5-5-5---|--------------|

So that's all what i've tab by now. It may be not very well, but hey it's my very first tab.
someday i'm going to tab "I'm Going Home" for you guys. ?VIVA CHILE, MIERDA!

Anything mail to kalutty@yahoo.com

2002 Amazinger Corp.    

Added On December 12th, 2013

SHARE

Comments

blog comments powered by Disqus

ADVERTISEMENT