Tenacious D Tabs

Car Chase City

2 versions

TAB

            This is all i know of the song. Its not the real way to play it (i think!) but its 
darn close!


e-------------------------------------------------------------------|
b-------------------------------------------------------------------|
g---7--5--x---------------------------------------------------------|
d---7--5--x--5--7------5-5-5-5-5--3-3-3-3-3-------------------------|
a---5--3--x--5--7------5-5-5-5-5--3-3-3-3-3-------------------------|
e------------3--5------3-3-3-3-3--1-1-1-1-1-------------------------|
                      Car chase city is the name of the game...

and repeat. Now for the chorus!

e--------------------------------------------------------------|
b--------------------------------------------------------------|
g---7---5--x---------------------------------------------------|
d---7---5--x--5---7--------------------------------------------|
a---5---3--x--5---7--------------------------------------------|
e-------------3---5--------------------------------------------|
 lets rock, lets role!

Thats all i know but its a pretty good go, eh??
Thanks. alexmascart    

Added On December 16th, 2013

SHARE

Comments

blog comments powered by Disqus

VERSIONS

ADVERTISEMENT