Tenacious D Tabs

Destiny

4 versions

TAB

            Destiny Tab by Tenacious D


This is my first tab, so here goes.

Standard tuning.

E|--------------------------------------------------------------------------|
B|------------------------1--0-------------1--------------------------1--0--|
G|--------4h5p4p0---------2--2-----2---0--------2---4h5p4p0------2----2--2--|
D|---------------------2-----------2---2-------------------------2----------|
A|------------------0-----------------------------------------0-------------|
E|--------------------------------------------------------------------------|

E|--------------------------------------------------------------------------|
B|-----0---3--0----------5 3\1p0h1-3-1-0------------------------------------|
G|---------2--0-----4h5------------------2-----------------2----------2-----|
D|--------------------------------------------------2------2---2------2-----|
A|--------------------------------------------------2------0---2------0-----|
E|--------------------------------------------------0-0-0------0-0-0--------|
                                              Pm    . . .      . . .

E|--------------------------------------------------------------------------|
B|-----------3----------------------3---------------------------------------|
G|-----------2----------------------2------6--------------------------------|
D|----2------0----------------------0------7--------------------------------|
A|----2------------------------------------4--------------------------------|
E|----0-0-0-----------------------------------------------------------------|
   Pm . . .  let ring __________           _______________




/\- slide
p- pull
h- hammer
pm- palm mute    

Added On December 12th, 2013

SHARE

Comments

blog comments powered by Disqus

VERSIONS

ADVERTISEMENT