Tenacious D Tabs

Pick Of Destiny Album

1 versions

TAB

            Kickapoo
Dm                                 Am
E|----1-10-3-3-0-11----1-10-3-3-0-11----------------------------------|
B|----3-33-3-3-3-33----3-33-3-3-3-33---1-10-3-3-0-11---1-10-3-3-0-11--|
G|----2-22-2-2-2-22----2-22-2-2-2-22---2-22-2-2-2-22---2-22-2-2-2-22--|
D|--0----------------0-----------------2-22-2-2-2-22---2-22-2-2-2-22--|
A|-----------------------------------0---------------0----------------|
E|--------------------------------------------------------------------|

    F              C      G
E|--1-1-1-1-1-1-1--0-0-0--3-3-3--|
B|--1-1-1-1-1-1-1--1-1-1--3-3-3--|
G|--2-2-2-2-2-2-2--0-0-0--0-0-0--|
D|--3-3-3-3-3-3-3--2-2-2--0-0-0--|
A|--3-3-3-3-3-3-3--3-3-3--2-2-2--|
E|--1-1-1-1-1-1-1---------3-3-3--|

Verse 1 (JB)

Dm                                   Am
E|----1-10-3-3-0-11----1-10-3-3-0-11----------------------------------|
B|----3-33-3-3-3-33----3-33-3-3-3-33---1-10-3-3-0-11---1-10-3-3-0-11--|
G|----2-22-2-2-2-22----2-22-2-2-2-22---2-22-2-2-2-22---2-22-2-2-2-22--|
D|--0----------------0-----------------2-22-2-2-2-22---2-22-2-2-2-22--|
A|-----------------------------------0---------------0----------------|
E|--------------------------------------------------------------------|

Long ass fucking time ago in a       There lived a humble family, religious town called 
               through and through

    F              C      G
E|--1-1-1-1-1-1-1--0-0-0--3-3-3--|
B|--1-1-1-1-1-1-1--1-1-1--3-3-3--|
G|--2-2-2-2-2-2-2--0-0-0--0-0-0--|
D|--3-3-3-3-3-3-3--2-2-2--0-0-0--|
A|--3-3-3-3-3-3-3--3-3-3--2-2-2--|
E|--1-1-1-1-1-1-1---------3-3-3--|

But yea there was a black sheep
and he knew just what to do

Dm                                   Am
E|----1-10-3-3-0-11----1-10-3-3-0-11----------------------------------|
B|----3-33-3-3-3-33----3-33-3-3-3-33---1-10-3-3-0-11---1-10-3-3-0-11--|
G|----2-22-2-2-2-22----2-22-2-2-2-22---2-22-2-2-2-22---2-22-2-2-2-22--|
D|--0----------------0-----------------2-22-2-2-2-22---2-22-2-2-2-22--|
A|-----------------------------------0---------------0----------------|
E|--------------------------------------------------------------------|

His name was young JB as he refused    A vision he did see-eth, fucking
to step in line,                        rocking all the time

    F              C      G
E|--1-1-1-1-1-1-1--0-0-0--3-(let ring)333--|
B|--1-1-1-1-1-1-1--1-1-1--3-(--------)333--|
G|--2-2-2-2-2-2-2--0-0-0--0-(--------)000--|
D|--3-3-3-3-3-3-3--2-2-2--0-(--------)000--|
A|--3-3-3-3-3-3-3--3-3-3--2-(--------)222--|
E|--1-1-1-1-1-1-1---------3-(--------)333--|

He wrote a tasty jam and all the
planets did align...

    Am               C                        G               Bb
E|-5-5-5-5-5-5-5-5--8--8--8--8--8--8--8--8---3-3-3-3-3-3-3-3--6-6-6-6-6-6-6-6-|
B|-5-5-5-5-5-5-5-5--8--8--8--8--8--8--8--8---3-3-3-3-3-3-3-3--6-6-6-6-6-6-6-6-|
G|-5-5-5-5-5-5-5-5--9--9--9--9--9--9--9--9---4-4-4-4-4-4-4-4--7-7-7-7-7-7-7-7-|
D|-7-7-7-7-7-7-7-7--10-10-10-10-10-10-10-10--5-5-5-5-5-5-5-5--8-8-8-8-8-8-8-8-|
A|-7-7-7-7-7-7-7-7--10-10-10-10-10-10-10-10--5-5-5-5-5-5-5-5--8-8-8-8-8-8-8-8-|
E|-5-5-5-5-5-5-5-5--8--8--8--8--8--8--8--8---3-3-3-3-3-3-3-3--6-6-6-6-6-6-6-6-|

Oh the dragon's balls were blazing as I stepped into his cage, and i sliced his fucking 
with a long and shiny blade

    Am               C                        G               Bb
E|-5-5-5-5-5-5-5-5--8--8--8--8--8--8--8--8---3-3-3-3-3-3-3-3--6--6--6--6-|
B|-5-5-5-5-5-5-5-5--8--8--8--8--8--8--8--8---3-3-3-3-3-3-3-3--6--6--6--6-|
G|-5-5-5-5-5-5-5-5--9--9--9--9--9--9--9--9---4-4-4-4-4-4-4-4--7--7--7--7-|
D|-7-7-7-7-7-7-7-7--10-10-10-10-10-10-10-10--5-5-5-5-5-5-5-5--8--8--8--8-|
A|-7-7-7-7-7-7-7-7--10-10-10-10-10-10-10-10--5-5-5-5-5-5-5-5--8--8--8--8-|
E|-5-5-5-5-5-5-5-5--8--8--8--8--8--8--8--8---3-3-3-3-3-3-3-3--6--6--6--6-|

Twas I who fucked the dragon, fuck-a-li sing fuck-a-loo, and if you try to fuck with me 
I shall fuck you too.

   A             B C     G    (gave up with chords)
E|-5-5-5-5-5-5-5/7/8--8--3-3-3-5-5-5-5-5/7/8--8--3-3-5-5-5-5-5-|
B|-5-5-5-5-5-5-5/7/8--8--3-3-3-5-7-5-7-5/7/8--8--3-3-5-7-5-7-5-|
G|-6-6-6-6-6-6-6/8/9--9--4-4-4-6-7-6-7-6/8/9--9--4-4-6-7-6-7-6-|
D|-7-7-7-7-7-7-7/9/10-10-5-5-5-7-7-7-7-7/9/10-10-5-5-7-7-7-7-7-|
A|-7-7-7-7-7-7-7/9/10-10-5-5-5-7-5-7-5-7/9/10-10-5-5-7-5-7-5-7-|
E|-5-5-5-5-5-5-5/7/8--8--3-3-3-5-5-5-5-5/7/8--8--3-3-5-5-5-5-5-|

Gotta get it on in the party zone, I gotsa shoot a load in the party zone

E|-5/7/8--8--3-3-3-5-5-5-5-5/7/8--8--3-3-5-5-5-5-5-|
B|-5/7/8--8--3-3-3-5-7-5-7-5/7/8--8--3-3-5-7-5-7-5-|
G|-6/8/9--9--4-4-4-6-7-6-7-6/8/9--9--4-4-6-7-6-7-6-|
D|-7/9/10-10-5-5-5-7-7-7-7-7/9/10-10-5-5-7-7-7-7-7-|
A|-7/9/10-10-5-5-5-7-5-7-5-7/9/10-10-5-5-7-5-7-5-7-|
E|-5/7/8--8--3-3-3-5-5-5-5-5/7/8--8--3-3-5-5-5-5-5-|

Gotta lick a toad in the party zone, gotta suck a chode in the party zone

Whack
"AAAGH"

Verse 2 (Meatloaf/Dad)

E|-1/3-3-3--6-6-6-6--1-1-1-1--4-4-4-4--1/3-3-3--6-6-6-6--1-1-1-1--4-4-4-4-|
B|-1/3-5-3--6-6-8-6--1-1-3-1--4-4-6-4--1/3-5-3--6-6-8-6--1-1-3-1--4-4-6-4-|
G|-2/4-5-4--7-7-8-7--2-2-3-2--5-5-6-5--2/4-5-4--7-7-8-7--2-2-3-2--5-5-6-5-|
D|-3/5-5-5--8-8-8-8--3-3-3-3--6-6-6-6--3/5-5-5--8-8-8-8--3-3-3-3--6-6-6-6-|
A|-3/5-3-5--8-8-6-8--3-3-1-3--6-6-4-6--3/5-3-5--8-8-6-8--3-3-1-3--6-6-4-6-|
E|-1/3-3-3--6-6-6-6--1-1-1-1--4-4-4-4--1/3-3-3--6-6-6-6--1-1-1-1--4-4-4-4-|

                                       You disobeyed my orders son, why were
                                       you ever born? Your brother's ten times
                                       better than you, Jesus loves him more

E|-1/3-3-3--6-6-6-6--1-1-1-1--4-4-4-4--1/3-3-3--6-6-6-6--1-1-1-1--4-4-4-4-|
B|-1/3-5-3--6-6-8-6--1-1-3-1--4-4-6-4--1/3-5-3--6-6-8-6--1-1-3-1--4-4-4-4-|
G|-2/4-5-4--7-7-8-7--2-2-3-2--5-5-6-5--2/4-5-4--7-7-8-7--2-2-3-2--5-5-5-5-|
D|-3/5-5-5--8-8-8-8--3-3-3-3--6-6-6-6--3/5-5-5--8-8-8-8--3-3-3-3--6-6-6-6-|
A|-3/5-3-5--8-8-6-8--3-3-1-3--6-6-4-6--3/5-3-5--8-8-6-8--3-3-1-3--6-6-6-6-|
E|-1/3-3-3--6-6-6-6--1-1-1-1--4-4-4-4--1/3-3-3--6-6-6-6--1-1-1-1--4-4-4-4-|

  This music that you play for us comes from the depths of hell, Rock and
  Roll's the devil's work, he wants you rebel. You'll become a mindless puppet, 
will pull the strings, your heart will lose direction, and chaos it will bring.

E|-3-3-3-3-3-3-3-3-5-6-6-1-1-1-1-3-3-3-3-3-5-6-6-1-1-1-1-3-3-3-3-3-|
B|-3-3-3-3-3-3-3-3-5-6-6-1-1-1-1-3-5-3-5-3-5-6-6-1-1-1-1-3-5-3-5-3-|
G|-4-4-4-4-4-4-4-4-6-7-7-2-2-2-2-4-5-4-5-4-6-7-7-2-2-2-2-4-5-4-5-4-|
D|-5-5-5-5-5-5-5-5-7-8-8-3-3-3-3-5-5-5-5-5-7-8-8-3-3-3-3-5-5-5-5-5-|
A|-5-5-5-5-5-5-5-5-7-8-8-3-3-3-3-5-3-5-3-5-7-8-8-3-3-3-3-5-3-5-3-5-|
E|-3-3-3-3-3-3-3-3-5-6-6-1-1-1-1-3-3-3-3-3-5-6-6-1-1-1-1-3-3-3-3-3-|

You better shut your mouth, you better watch your tone, you're going for a week with no telephone

E|-5-6-6-1-1-1-1-3-3-3-3-3-5-6-6-1-1-1-1-3-3-3-3-3-|
B|-5-6-6-1-1-1-1-3-5-3-5-3-5-6-6-1-1-1-1-3-5-3-5-3-|
G|-6-7-7-2-2-2-2-4-5-4-5-4-6-7-7-2-2-2-2-4-5-4-5-4-|
D|-7-8-8-3-3-3-3-5-5-5-5-5-7-8-8-3-3-3-3-5-5-5-5-5-|
A|-7-8-8-3-3-3-3-5-3-5-3-5-7-8-8-3-3-3-3-5-3-5-3-5-|
E|-5-6-6-1-1-1-1-3-3-3-3-3-5-6-6-1-1-1-1-3-3-3-3-3-|

   Don't let me here you cry don't let me here you moan, you gotta praise the
   Lord when you're in my home.

Verse 3 (JB)

E|----3h5p3-----6--6------1----1h3p1-1--------------3----3-----6---6-----1----|
B|---3-----3-3---6-6-6-----1--------1-------4-----------3--------6-6---1--1-1-|
G|--4-------4------7--7-2----2----------5---5-------------4-4/7--7---------2--|
D|-5-----------8--------3----3---------6--6---(6)--5---5-------------3--3-----|
A|----------------------3----3------------------------------------------------|
E|----------------------------------------------------------------------------|
Dio can you hear me, I am lost and so alone, I'm asking for your guidance, won't you 
down from your throne. I need a tight compadre, who will teach me how to rock, my father 
you're evil, but man,

E|--4----------3--3------6--6-6---1---1------------|
B|---4--4-4---3--3--3-3/6-6-6--6---1---1-----------|
G|----5-5--7--4--4--4-4/7---7----2--2----2/5-5-5-5-|
D|-6----6-----5--5--5-5/8---8----3--3----3/6-6-6-6-|
A|-------------------------------3--3----3/6-6-6-6-|
E|-------------------------------------------------|

  he can suck a cock. Rock is not the devil's work it's magical and rad, i'll
  never rock as long as i'm stuck here with my

E|-3-33-3---4-44-4---1-11-1---6-66-5-55-|
B|-3-33-3---4-44-4---1-11-1---6-66-5-55-|
G|-4-44-4---5-55-5---2-22-2---7-77-6-66-|
D|-5-55-5---6-66-6---3-33-3---8-88-7-77-|
A|-5-55-5---6-66-6---3-33-3---8-88-7-77-|
E|-3-33-3---4-44-4---1-11-1---6-66-5-55-|

  dad...

Verse 3 (Dio)

E|-8----8----8----66666666-8----8----8----6-6-6-6-8-----8----1----4--|
B|-8----8----8----66666666-8----8----8----6-6-6-6-8-----8----1----4--|
G|-9----9----9----77777777-9----9----9----7-7-7-7-9-----9----2----5--|
D|-10---10---10---88888888-10---10---10---8-8-8-8-10----10---3----6--|
A|-10---10---10---88888888-10---10---10---8-8-8-8-10----10---3----6--|
E|-8----8----8----66666666-8----8----8----6-6-6-6-8-----8----1----4--|

   I hear you brave young Jables you are hungry for the rock, but to learn the
ancient methods secret doors you must unlock, escape your father's clutches
and this oppressive neighbourhood, on a journey you must go to find the land
of Hollywood. In the city of fallen angels, where the ocean meets the sand,

E|--8----1----4----8----1----4----8----1-1-4-4--3-33--6-6-5-3-33--6-6-5-|
B|--8----1----4----8----1----4----8----1-1-4-4--3-33--8-8-7-3-33--8-8-7-|
G|--9----2----5----9----2----5----9----2-2-5-5--4-44--8-8-7-4-44--8-8-7-|
D|--10---3----6----10---3----6----10---3-3-6-6--5-55--8-8-7-5-55--8-8-7-|
A|--10---3----6----10---3----6----10---3-3-6-6--5-55--6-6-5-5-55--6-6-5-|
E|--8----1----4----8----1----4----8----1-1-4-4--3-33--6-6-5-3-33--6-6-5-|

you will form a strong alliance, and the world's most awesome band, to find
your fame and fortune, through the valley you must walk, you will face your
inner demons, now go my son and ROOOOOOOOCK!

E|-3-33--6-6-5-3--5-6-8--3-33--6-6-5-3-33--6-6-5-3--5-6-8--|
B|-3-33--8-8-7-4--7-8-10-3-33--8-8-7-3-33--8-8-7-4--7-8-10-|
G|-4-44--8-8-7-5--7-8-10-4-44--8-8-7-4-44--8-8-7-5--7-8-10-|
D|-5-55--8-8-7-5--7-8-10-5-55--8-8-7-5-55--8-8-7-5--7-8-10-|
A|-5-55--6-6-5-3--5-6-8--5-55--6-6-5-5-55--6-6-5-3--5-6-8--|
E|-3-33--6-6-5-3--5-6-8--3-33--6-6-5-3-33--6-6-5-3--5-6-8--|

Verse 4 (JB)

E|-3------5--------------------------------------|
B|-3------7--------------------------------------|
G|-4------7--------------------------------------|
D|-5------7------3-3-3-3-3-3-3-3-3-3-3-3-3-3-3-3-|
A|-5------5------3-3-3-3-3-3-3-3-3-3-3-3-3-3-3-3-|
E|-3------5------1-1-1-1-1-1-1-1-1-1-1-1-1-1-1-1-|

So he went from fucking Kickapoo with hunger in his heart, and he journeyed
far and wide to find the secrets of his art, but in the end he knew that he
would find his counterpart.

E|-3-33--6-6-5-3-33--6-6-5-3-33--6-6-5-3--5-6-8--|
B|-3-33--8-8-7-3-33--8-8-7-3-33--8-8-7-4--7-8-10-|
G|-4-44--8-8-7-4-44--8-8-7-4-44--8-8-7-5--7-8-10-|
D|-5-55--8-8-7-5-55--8-8-7-5-55--8-8-7-5--7-8-10-|
A|-5-55--6-6-5-5-55--6-6-5-5-55--6-6-5-3--5-6-8--|
E|-3-33--6-6-5-3-33--6-6-5-3-33--6-6-5-3--5-6-8--|

Roooooooooooooooooooooooooooooock, Ro-ha-ha-ha-

E|-3-33--6-6-5-3-33--6-6-5-3-33--6-6-5-3--5-6-8--|
B|-3-33--8-8-7-3-33--8-8-7-3-33--8-8-7-4--7-8-10-|
G|-4-44--8-8-7-4-44--8-8-7-4-44--8-8-7-5--7-8-10-|
D|-5-55--8-8-7-5-55--8-8-7-5-55--8-8-7-5--7-8-10-|
A|-5-55--6-6-5-5-55--6-6-5-5-55--6-6-5-3--5-6-8--|
E|-3-33--6-6-5-3-33--6-6-5-3-33--6-6-5-3--5-6-8--|

-oooooooooooooooooooooooooooooooock, Ro-ha-ha-ha

E|-3-33--6-6-5-3-33--6-6-5-3-33--6-6-5-3--5-6-8--|
B|-3-33--8-8-7-3-33--8-8-7-3-33--8-8-7-4--7-8-10-|
G|-4-44--8-8-7-4-44--8-8-7-4-44--8-8-7-5--7-8-10-|
D|-5-55--8-8-7-5-55--8-8-7-5-55--8-8-7-5--7-8-10-|
A|-5-55--6-6-5-5-55--6-6-5-5-55--6-6-5-3--5-6-8--|
E|-3-33--6-6-5-3-33--6-6-5-3-33--6-6-5-3--5-6-8--|

yi-yi-yi-yi-yi-yi-yi-yi-yi-ock

E|-----------------------------------------|
B|-----------------------------------------|
G|-----------------------------------------|
D|-3333333333333333333333333333333333333\0-|
A|-3333333333333333333333333333333333333\0-|
E|-1111111111111111111111111111111111111\0-|


classico
E||---0-2-3---2-0-----0-2---------------------------------------------|
B||---------------4-------0---2-4-5---3-1-0----------------0----------|
G||-------------------------------------------2-0------0-2---2-0------|
D||------------------------------------------------4-------------4-2--|
A||-------------------------------------------------------------------|
E||-------------------------------------------------------------------|x2

E||------0---|--0---0-------|--------------|--------------|----------0---|
B||--------4-|----4---0-3-1-|--------------|--0---------0-|--1---------4-|
G||----------|--------------|--2---2-----2-|------1---1---|------2-------|
D||----------|--------------|----2-----2---|----2---2-----|----2---2-----|
A||----------|--------------|--0-----3-----|--------------|--0-----------|
E||----------|--------------|--------------|--0-----------|--------------|

--0---0-------|--------------|--------------|---------0---|--0---0-------|
----4---0-3-1-|--------------|--0-------1-0-|-----------4-|----4---0-3-1-|
--------------|--2---2-----2-|------1-------|--2---2------|--------------|
--------------|----2-----2---|----2---2-----|----2--------|--------------|
--------------|--0-----3-----|--------------|--0----------|--------------|
--------------|--------------|--0-----------|-------------|--------------|

--------------|--------------|----------0---|--0---0-------|--------------|
--------------|--0---------0-|--1---------4-|----4---0-3-1-|--------------|
--2---2-----2-|------1---1---|------2-------|--------------|--2---2-----2-|
----2-----2---|----2---2-----|----2---2-----|--------------|----2-----2---|
--0-----3-----|--------------|--0-----------|--------------|--0-----3-----|
--------------|--0-----------|--------------|--------------|--------------|

--------------|--------------|--0-------1-0-|----------0---|--------------|
--0-------1-0-|--------0-1-3-|------1-------|--3---0-----3-|--1-------3-1-|
------1-------|--2---2-------|--------0-----|----0---------|------2-------|
----2---0-----|----2---------|----2---------|--------3-----|----2---2-----|
--------------|--0-----------|--3-----------|--------------|--0-----------|
--0-----------|--------------|--------------|--3-----------|--------------|

------0---0---|--0---12---0---|--0---0---0---|--0---0-------|--------------|
--0-----------|---------4---4-|----4---4---4-|----4---0-3-1-|--------------|
--------------|----9----------|--------------|--------------|--2---2-----2-|
----2---2---2-|---------------|--------------|--------------|----2-----2---|
--------------|---------------|--------------|--------------|--0-----3-----|
--0-----------|---------------|--------------|--------------|--------------|

--------------|----------0---|--0---0-------|--------------|--------------|
--0---------0-|--1---------4-|----4---0-3-1-|--------------|--0-------1-0-|
------1---1---|------2-------|--------------|--2---2-----2-|------1-------|
----2---2-----|----2---2-----|--------------|----2-----2---|----2---0-----|
--------------|--0-----------|--------------|--0-----3-----|--------------|
--0-----------|--------------|--------------|--------------|--0-----------|

--------------|--0-------1-0-|----------0---|--------------|------0---0---|
--------0-1-3-|------1-------|--3---0-----3-|--1-------3-1-|--0-----------|
--2---2-------|--------0-----|----0---------|------2-------|--------------|
----2---------|----2---------|--------3-----|----2---2-----|----2---2---2-|
--0-----------|--3-----------|--------------|--0-----------|--------------|
--------------|--------------|--3-----------|--------------|--0-----------|

--0---12---0---|--0---0---0---|--0---0-------|--------------|--------------|
---------4---4-|----4---4---4-|----4---0-3-1-|--------------|--0---------0-|
---------------|--------------|--------------|--2---2-----2-|------1---1---|
---------------|--------------|--------------|----2-----2---|----2---2-----|
---------------|--------------|--------------|--0-----3-----|--------------|
----0----------|--------------|--------------|--------------|--0-----------|

----------0---|--0---0-------|--------------|--------------|--------------|
--1---------4-|----4---0-3-1-|--------------|--0-------1-0-|--------1-1-1-|
------2-------|--------------|--2---2-----2-|------1-------|--2---2-----3-|
----2---2-----|--------------|----2-----2---|----2---0-----|----2---2-3-2-|
--0-----------|--------------|--0-----3-----|--------------|--0-----1-0---|
--------------|--------------|--------------|--0-----------|------------3-|

----------1---0-|----------6---5-|--5/3-1-0-----|------------------|
--1-------1-----|--5---3---3-----|----------3-1-|------------------|
--2-2---2---2---|----3---3---3---|--------------|--3---2---2-0-2-3-|
------3---------|--3-------------|--3/2-0-2-3-2-|--3---------------|
----------------|----------------|--------------|----3-3h0---------|
--1-------------|----------------|--------------|------------------|

--------------|--0-----0-1---|----------------|----3---3---3---3---3---3-|
--1-------3-4-|------1-------|--1-------3---0-|--1-----------0---1---3---|
--2-2---2-----|----2---2---2-|----------------|------0---2---------------|
--3---3-------|--2-------0-3-|----2---3---3---|--------------3---2---0---|
--------------|--------------|----------------|--3-----------------------|
--------------|--------------|--3---3---3-----|--------------------------|

--0-3-8h7-5h3-1-0---3-1---|----3---3---3---3---3---3-|
------------------3-----3-|--1-----------0---1---3---|
------------------0-------|------0---2---------------|
----------3---------------|--------------3---2---0---|
--3/--7-------------------|--3-----------------------|
--------------------------|--------------------------|

--0-3-8h7-5h3-1-0---3-1---|--0-1-0---0---0---0---0---|--0-----0---|--0-----0---|
------------------3-----3-|--------4---0---4---0---4-|------0---4-|------0---4-|
------------------0-------|--1-----------------------|------------|------------|
----------3---------------|--------------------------|------------|------------|
--3/--7-------------------|--------------------------|------------|------------|
--------------------------|--------------------------|------------|------------|

--0---0---0---|--0---0-------|--------------|--------------|----------0---|
----4---4---4-|----4---0-3-1-|--------------|--0---------0-|--1---------4-|
--------------|--------------|--2---2-----2-|------1---1---|------2-------|
--------------|--------------|----2-----2---|----2---2-----|----2---2-----|
--------------|--------------|--0-----3-----|--------------|--0-----------|
--------------|--------------|--------------|--0-----------|--------------|

--0---0-------|--------------|--------------|--------------|--0-------1-0-|
----4---0-3-1-|--------------|--0-------1-0-|--------0-1-3-|------1-------|
--------------|--2---2-----2-|------1-------|--2---2-------|--------0-----|
--------------|----2-----2---|----2---0-----|----2---------|----2---------|
--------------|--0-----3-----|--------------|--0-----------|--3-----------|
--------------|--------------|--0-----------|--------------|--------------|

----------0---|--------------|------0---0---|--0---12---0---|--0---0---0---|
--3---0-----3-|--1-------3-1-|--0-----------|---------4---4-|----4---4---4-|
----0---------|------2-------|--------------|---------------|--------------|
--------3-----|----2---2-----|----2---2---2-|---------------|--------------|
--------------|--0-----------|--------------|---------------|--------------|
--3-----------|--------------|--0-----------|----0----------|--------------|

--0---0-------|--------------|--------------|----------0---|--0---0-------|
----4---0-3-1-|--------------|--0---------0-|--1---------4-|----4---0-3-1-|
--------------|--2---2-----2-|------1---1---|------2-------|--------------|
--------------|----2-----2---|----2---2-----|----2---2-----|--------------|
--------------|--0-----3-----|--------------|--0-----------|--------------|
--------------|--------------|--0-----------|--------------|--------------|

--------------|--------------|--------------|--------------|----------0-1-|
--------------|--0-------1-0-|--------------|--2-----------|--3-------2-3-|
--2---2-----2-|------1-------|--2-----------|--3-----------|--2-----------|
----2-----2---|----2---0-----|--------------|--5-----------|--3-----------|
--0-----3-----|--------------|--0-0-0-0-0-0-|--0-0-0-0-0-0-|--0-0-0-0-0-0-|
--------------|--0-----------|--------------|--------------|--------------|

--1-------1---|--0-----------|-----------|----------|--------------|
--3-------3---|--1-----------|--3----1-0-|----------|------1---0---|
--1-------1---|--2-----------|-----------|--2----2--|--2-------1---|
--------------|--------------|--3----2-0-|--4-------|------2-------|
--0-0-0-0-0-0-|--0-0-0-0-0-0-|--0--------|--3----3--|--3-----------|
--------------|--------------|-----------|--5-------|--0-0-0-0-0-0-|

--------------|--------------|----------0-1-|--1-------1---|--1-----------|
--------------|--2-----------|--3-------2-3-|--3-------3---|--3-----------|
--2-----------|--3-----------|--2-----------|--------------|--------------|
--------------|--5-----------|--3-----------|--------------|--------------|
--3h0-0-0-0-0-|--0-0-0-0-0-0-|--0-0-0-0-0-0-|--0-0-0-0-0-0-|--1-1-1-1-1-1-|
--------------|--------------|--------------|--------------|--------------|

--------------|--------------|--------------|---------|---------|
--4-------3-1-|--------------|--------------|---------|--0------|
--0-----------|--3-------2---|--1-------1---|--2------|--1------|
----------3---|--0-------3---|--3-------3---|--2------|--2------|
--1-1-1-1-1-1-|--1-1-1-1-1-1-|--2-2-2-2-2-2-|--3------|---------|
--------------|--------------|--------------|---------|--0------|

------------0-------|------0----8-12-10h8----|------0----8-12-10h8----|
----------1---3h1-0-|----1---10-----------12-|----1---10-----------12-|
--------2-----------|--2---------------------|--2---------------------|
------2-------------|------------------------|------------------------|
--0h3---------0-----|--0-------------0-------|--0-------------0-------|
--------------------|------------------------|------------------------|

------------------------|--------------------|------0-------|--------------|
--11-10-9-8-----------3-|--2-1-0-------------|----4---0-3-1-|--------------|
------------11-10-9-8---|--------3-2-1-0-----|--------------|--2---2-----2-|
------------------------|----------------4-3-|--2-----------|----2-----2---|
--0---------------------|--------------------|--------------|--0-----3-----|
------------------------|--------------------|--------------|--------------|

--------------|----------0---|--0---0-------|--------------|--------------|
--0---------0-|--1---------4-|----4---0-3-1-|--------------|--0-------1-0-|
------1---1---|------2-------|--------------|--2---2-----2-|------1-------|
----2---2-----|----2---2-----|--------------|----2-----2---|----2---0-----|
--------------|--0-----------|--------------|--0-----3-----|--------------|
--0-----------|--------------|--------------|--------------|--0-----------|

--------------|--0-------1-0-|----------0---|--------------|------0---0---|
--------0-1-3-|------1-------|--3---0-----3-|--1-------3-1-|--0-----------|
--2---2-------|--------0-----|----0---------|------2-------|--------------|
----2---------|----2---------|--------3-----|----2---2-----|----2---2---2-|
--0-----------|--3-----------|--------------|--0-----------|--------------|
--------------|--------------|--3-----------|--------------|--0-----------|

--0---12---0---|--0---0---0---|--0---0-------|--------------|--------------|
---------4---4-|----4---4---4-|----4---0-3-1-|--------------|--0---------0-|
----9----------|--------------|--------------|--2---2-----2-|------1---1---|
---------------|--------------|--------------|----2-----2---|----2---2-----|
---------------|--------------|--------------|--0-----3-----|--------------|
---------------|--------------|--------------|--------------|--0-----------|

----------0---|--0---0-------|--------------|--------------|---------||
--1---------4-|----4---0-3-1-|--------------|--0-------1-0-|---------||
------2-------|--------------|--2---2-----2-|------1-------|--2------||
----2---2-----|--------------|----2-----2---|----2---0-----|---------||
--0-----------|--------------|--0-----3-----|--------------|--0------||
--------------|--------------|--------------|--0-----------|---------||


metal
E ||-------------------------------|---------------------||
 B ||-------------------------------|---------------------||
 G ||-------------------------------|---------------------||
 D ||-------------------------------|---------------------||
 A ||-------------3-2-0-2-0-2-3-2-0-|-------------3-2-0-2-||
 E ||-0-0-0-3-0-0-------------------|-0-0-0-3-0-0---------||

 E ||-------------------------------|-----------------------------||
 B ||-------------------------------|-----------------------------||
 G ||-------------------------------|-----0-----------------------||
 D ||-------------------------------|-------3-2-3-2-0-2-0-2-3-2-0-||
 A ||-------------3-2-0-2-0-2-3-2-0-|---3-------------------------||
 E ||-0-0-0-3-0-0-------------------|-1---------------------------||


2nd Part

 E ||---------------|---------------||
 B ||---------------|---------------||
 G ||---------------|---------------||
 D ||-2-2-2-5-2-2-2-|-2-2-2-5-2-2-2-||
 A ||-2-2-2-5-2-2-2-|-2-2-2-5-2-2-2-||
 E ||-0-0-0-3-0-0-0-|-0-0-0-3-0-0-0-||

 E ||-------------|--------------------||
 B ||-------------|--------------------||
 G ||-9-7-9-7-9-10|-9-7-9-7-9-12-11-10-||
 D ||-9-7-9-7-9-10|-9-7-9-7-9-12-11-10-||
 A ||-7-5-7-5-7-8-|-7-5-7-5-7-10-9--8--||
 E ||-------------|--------------------||


master exploder
E||-------|-------|---------|-------|---------12------12---------------|
B||-------|-------|---------|-------|------------12---------15p-12-----|
G||-------|-------|---------|-------|--14b-------------------------14--|
D||99999xx|-------|7---9----|-------|----------------------------------|
A||77777xx|5555xx-|5-7-7----|-------|----------------------------------|
E||-------|3333xx-|--5------|-------|----------------------------------|


   E    E   E   E   E   E    S   S  E       Q      S  E   Q     S   S  E   
----------------------------------------|---------12-----12---------------|
----------------------------------------|------------12--------15p-12-----|
--14b--14--12------12--14b--14p-12-14b--|--14b------------------------14--|
---------------14-----------------------|---------------------------------|
----------------------------------------|---------------------------------|
----------------------------------------|---------------------------------|


   S  S  S  S  S   S  S  S  S   S  S  S  S   S  S  S  
---x-15----15-17p-15----15-17p-15----15-17p-15----15-|
--------17-----------17-----------17-----------17----|
-----------------------------------------------------|
-----------------------------------------------------|
-----------------------------------------------------|
-----------------------------------------------------|


   Q      S   S  S   S   S  S  S   S  S   S   S  S  
---------17p-15------------15-17p-15------------15-|
--15b-----------17p-15h-17-----------17p-15h-17----|
---------------------------------------------------|
---------------------------------------------------|
---------------------------------------------------|
---------------------------------------------------|


   S   S  S   S   S  S  S   S  S   S   S  S  E                            
--17p-15------------15-17p-15------------15------|
---------17p-15h-17-----------17p-15h-17----12\--|
-------------------------------------------------|
-------------------------------------------------|
-------------------------------------------------|
-------------------------------------------------|

Pick of destiny
|e-0--0-0----0-0-0-0------------------------------------------------| -1-
|B-1--0-1----1-1-0-1------------------------------------------------|
|G-2--0-2----2-2-0-2------------------------------------------------|
|D-2--0-2--x-2-2-0-2-------------3-3-3-3-3-3-3-3-5-5-5-5-5-5-5-5----| 
|A-0--0-0--x-0-0-0-0-------------3-3-3-3-3-3-3-3-5-5-5-5-5-5-5-5----|
|E-------------------------------1-1-1-1-1-1-1-1-3-3-3-3-3-3-3-3----|
|
|Cause its a pick!...                                                    x2
|
|e------------------------------------------------------------------| -2-
|B------------------------------------------------------------------|
|G------------------------------------------------------------------|
|D------------------------------------------------------------------|  
|A-----------------------3-2----------/3-2-0-------------3-2-0------|
|E---------------5-0-3-5-----5-3-1vv---------3vv---3-5-3-------3----|



Verse                                     #1                #2
|e----------------------------------------|------|          |--------| -2-
|B----------------------------------------|------|          |--------|
|G---2---2---2---2------------------------|------| x 3 then |--------|
|D---2---2---2---2-5-5-5-3---3---3-5---5--|5-5-5-|          |5-5-5-5-|
|A-0-0-0-0-0-0-0-0-5-5-5-3---3---3-5---5--|5-5-5-|          |5-5-5-5-|
|E-----------------3-3-3-1-1-1-1-1-3-3-3-3|3-3-3-|          |3-3-3-3-|
 Pm_   _   _   _           _   _     _
In Venice beach there was a man named Cage...

Chorus 1

Chorus 2
|e-------------------------------------------------------| -1-
|B-------------------------------------------------------|
|G-------------------------------------------------------|
|D-3-3-3-3-3-3-3-3-3-5-5-5-5-5-5-5-----------------------| x3
|A-3-3-3-3-3-3-3-3-5-5-5-5-5-5-5-5-----------------------|
|E-1-1-1-1-1-1-1-1-3-3-3-3-3-3-3-3-----------------------|
|Pm_____   ___   _   ___   ___   _ 
Cause he who is sleazy-is easy to pleasey...
|e----------------0-|
|B----------------0-|
|G----------------1-|
|D-7-5-3-5--2-2-2-2-|
|A-7-5-3-5--2-2-2-2-|
|E-5-3-1-3--0-0-0-0-|


Bridge


|e--1-----1---------1-----1---------0-----0---------0-----0-------| -1-
|B----3-----3---3-----3-----3---3-----1-----1---1-----1-----1---1-|
|G------2-----2---------2-----2---------2-----2---------2-----2---|
|D-0--------------0-----------------------------------------------|
|A--------------------------------0---------------0---------------|
|E----------------------------------------------------------------|
The wizard and the demon had a battle royal...
|e-0-0-----0---------3-----3--------------------------------------|
|B-1---1-----1---1-----3-----3---3--------------------------------|
|G-0-----0-----0---------0-----0----------------------------------|
|D-2---------------0----------------------------------------------|
|A-3---------------2----------------------------------------------|
|E-----------------3----------------------------------------------|
|
|
|
|e---------------------------------| -2-
|B---------------------------------|
|G---------------------------------|      *Begin to lift your 
|D-3-3-3-3-3-3-3-3-5-5-5-5-5-5-5-5-|   palm slowly off the strings
|A-3-3-3-3-3-3-3-3-5-5-5-5-5-5-5-5-|
|E-1-1-1-1-1-1-1-1-3-3-3-3-3-3-3-3-|
 Pm______*________________________


Chorus 1


|e-------------------------------------------------------| -1-
|B-------------------------------------------------------|
|G-------------------------------------------------------|
|D-3-3-3-3-3-3-3-3-3-5-5-5-5-5-5-5-----------------------| x3
|A-3-3-3-3-3-3-3-3-5-5-5-5-5-5-5-5-----------------------|
|E-1-1-1-1-1-1-1-1-3-3-3-3-3-3-3-3-----------------------|
|Pm_____   ___   _   ___   ___   _ 
He who's a geezer-must live in my freezer...


SOLO

            I know this is wrong but this is the best I can do.
|e-------------------------------------------------------------------| -1-
|B-------------------------------------------------------------------|
|G---------------------------------7^-----8^---------7-7^-8^--7------|
|D-10^-----7-10^-7------7^--10-9-7----9-7-10^---10-7---9--10----10-7-|
|A------10-----------10----------------------------------------------|
|E-------------------------------------------------------------------|

|e------------------------------------------------10-12-13-15-17-----| 
|B-0--0---------------10----10--0-0-0--0--0--0--0--0--0--0--0--0-----|
|G-9/10-10/12-12---12----12-----------10-12-14-16--------------------|
|D-------------------------------------------------------------------|
|A-------------------------------------------------------------------|
|E-------------------------------------------------------------------|
|                       Tremolo Picking__________________________
|                (As many times as possible, 
|                    as fast as possible)
|
|
|(Backup Chords)
|e-------------------------------------------------------------------| -2-
|B-------------------------------------------------------------------|
|G-2-2-2-2-2-2-2-2-2-2-2-2-2-2-2-2-----------------------------------|
|D-2-2-2-2-2-2-2-2-2-2-2-2-2-2-2-2-3-3-3-3-3-3-3-3-5-5-5-5-5-5-5-5---| x2
|A-0-0-0-0-0-0-0-0-0-0-0-0-0-0-0-0-3-3-3-3-3-3-3-3-5-5-5-5-5-5-5-5---|
|E---------------------------------1-1-1-1-1-1-1-1-3-3-3-3-3-3-3-3---|



Outro
|e--------------------8-8-10-11^--|--------------------------------|-1-
|B-----------------10-------------|--------------------------------|
|G--------------------------------|-----9h10p9---------------------|
|D------12^-12^12^----------------|-10^--------12-10-9-------------|
|A--------------------------------|--------------------12-10-8-7-8-|
|E--------------------------------|--------------------------------|
'Cause if you're a diva-then go to Geneva...

To be played with Outro Soloing
|e-------------------------------------------------------| -2-
|B-------------------------------------------------------|
|G-------------------------------------------------------|
|D-3-3-3-3-3-3-3-3-3-5-5-5-5-5-5-5-----------------------| x3
|A-3-3-3-3-3-3-3-3-5-5-5-5-5-5-5-5-----------------------|
|E-1-1-1-1-1-1-1-1-3-3-3-3-3-3-3-3-----------------------|
|  Pm___   ___   _   ___   ___   _ 


|e---------------------|
|B---------------------|
|G-8^------------------|
|D----10-7-10-7----7vv-|
|A--------------10-----|
|E---------------------|
|
|It's called the pick of destiny!
|
|e--------------------|
|B--------------------|
|G--------------------|
|D-3-2--5-2--7-7-7-7--|
|A-3-2--5-2--7-7-7-7--|
|E-1-0--3-0--5-5-5-5--|

Beelzeboss
Intro-
e|------------------------------------------------------------------|
B|------------------------------------------------------------------|
G|--4--4-4-4-4-4-4--5--5-5-5-5-5-5--7--7-7-7-7-7-7--9--9-9-9-9-9-9--|
D|--x--x-x-x-x-x-x--x--x-x-x-x-x-x--x--x-x-x-x-x-x--x--x-x-x-x-x-x--|
A|--2--2-2-2-2-2-2--3--3-3-3-3-3-3--5--5-5-5-5-5-5--7--7-7-7-7-7-7--|
E|------------------------------------------------------------------|
pm     . . .           . . .           . . .           . . .

e|-----------------------------------------------------------------------|
B|-----------------------------------------------------------------------|
G|--11--11-11-11-11-11-11--12--12-12-12-12-12-12--14--14-14-14-14-14-14--|
D|--x---x--x--x--x--x--x---x---x--x--x--x--x--x---x---x--x--x--x--x--x---|
A|--9---9--9--9--9--9--9---10--10-10-10-10-10-10--12--12-12-12-12-12-12--|
E|-----------------------------------------------------------------------|
pm      .  .  .                .  .  .                .  .  .

e|------------------------------------------------|-------------|
B|------------------------------------------------|-------------|
G|--15-15--15-15-15-15--15-15-15-15--15-15-15-15--|--15---------|
D|--x--x---x--x--x--x---x--x--x--x---x--x--x--x---|--x---(x24)--|
A|--13-13--13-13-13-13--13-13-13-13--13-13-13-13--|--13---------|
E|------------------------------------------------|-------------|

Devil Verse-
e|----------------------------|---------------------------------------|
B|----------------------------|---------------------------------------|
G|---------------------(x2)---|---------------------------------------| x2
D|----------------------------|---------------------------------------|
A|--8-7--x-x-x--x-x-----------|--8-7--x-x--7-8--x-x--8-7--x-x-x--x-x--|
E|--6-5--x-x-x--x-x-----------|--6-5--x-x--5-6--x-x--6-5--x-x-x--x-x--|

e|----------------------------|-------------------------------|
B|----------------------------|-------------------------------|
G|---------------------(x2)---|-------------------------------|
D|----------------------------|----------------------------8--|
A|--8-7--x-x-x--x-x-----------|--8-7--x-x--7-8--x-x--8-7-5-6--|
E|--6-5--x-x-x--x-x-----------|--6-5--x-x--5-6--x-x--6-5-3----|

The D Challenges-
e|--2~----2-5~----5-2~----2-3~----|--3~----3-5~----5-5~----|--5-5~---5~---|
B|--4~----4-7~----7-2~----2-3~----|--3~----3-7~----7-5~----|--5-5~---5~---|
G|--4~----4-7~----7-3~----3-4~----|--4~----4-7~----7-6~----|--6-6~---6~---|
D|--4~----4-7~----7-4~----4-5~----|--5~----5-7~----7-7~----|--7-7~---7~---|
A|--2~----2-5~----5-4~----4-5~----|--5~----5-5~----5-7~----|--7-7~---7~---|
E|------------------2~----2-3~----|--3~----3---------5~----|--5-5~---5~---|

e|--------3----5----5----5-5~---|
B|--------3----7----5----7-5~---|
G|--------4----7----6----7-6~---|
D|--------5~---7----7----7-7~---|
A|--------5~---5----7----5-7~---|
E|--0-2-3-3~--------5------5~---|
          ^    ^    ^
 just pick notes from these chords


The Devil Accepts The Challenge-
e|------------------|--------------------------------------------------|
B|------------------|--------------------------------------------------|
G|--16/-----16/-----|--------------------------------------------------|
D|--16/-----16/-----|--4--4-4-4-4-4-4-4-4-4--7--7-7-7------------(x3)--|
A|--14/-----14/-----|--2--2-2-2-2-2-2-2-2-2--5--5-5-5--4--4-4-4--------|
E|------------------|----------------------------------2--2-2-2--------|
pm                    (.) . . . . . . . . .     . . .     . . .
                       ^only pm on first time

e|-------------------------------|
B|-------------------------------|
G|-------------------------------|
D|--7~--------------2~-----------|
A|--7~--------------2~-----------|
E|--5~--------------0~-----------|

The D's Part Of The Deal
e|--0---------------0--------------0---------------0-0-3-2-0------0-0-0~--|
B|--0---------------1--------------0---------------2-1-3-3-3p2----2-3-2~--|
G|--1-(16 beats)----2-(8 beats)----1-(16 beats)----2-0-0-2-2------2-2-2~--|
D|--2---------------2--------------2---------------2-2-0-0-2~-----2-2-2~--|
A|--2---------------0--------------2---------------0-3-2---0~-----0-0-0~--|
E|--0------------------------------0-------------------3------------------|

"And What If I Win?"
   The D      Devil
e|--0-0-0~--|----------|
B|--1-1-1~--|----------|
G|--2-2-2~--|------2~--|
D|--2-2-2~--|------2~--|
A|--0-0-0~--|------0~--|
E|----------|----------|

e|--0-0-0~--|
B|--1-1-1~--|
G|--2-2-2~--|
D|--2-2-2~--|
A|--0-0-0~--|
E|----------|

The Devil's Part Of the Deal
e|--3~------3~----3-3-3~----3~------3-3-3-3-0--|
B|--3~------3~----3-3-3~----3~------3-3-3-3-1--|
G|--0~------0~----0-0-0~----0~------0-0-0-0-0--|
D|--0~------0~----0-0-0~----0~------0-0-0-0-2--|
A|--2~------2~----2-2-2~----2~------2-2-2-2-3--|
E|--3~----3-3~----3-3-3~----3~----3-3-3-3-3----|

The Rock Off Begins

The Devil
e|--------------------|----------------------------|
B|--------------------|----------------------------|
G|--------------------|--5--4--7--6--9--8--12--11--| x3
D|--4--x-x-x-x--(x4)--|--x--x--x--x--x--x--x---x---|
A|--2--x-x-x-x--------|--3--2--5--4--7--6--10--9---|
E|--------------------|----------------------------|

	Tasty Riff
e|-------7---------------7-----------------------------|
B|--7--7---10p7-10b-10---10p7---------------------s12--|
G|--9b------------------------9b-9b-9p7---7------------|
D|--------------------------------------9---9-p7-------|
A|-----------------------------------------------------|
E|-----------------------------------------------------|

        "I'm the Devil, I can do what I want..."
e|--------------------|--------------------|
B|--------------------|--------------------|
G|--4~----7~----------|--------------------|
D|--4~----7~----4~----|--4--x-x-x-x--(x4)--|
A|--2~----5~----4~----|--2--x-x-x-x--------|
E|--------------2~----|--------------------|

e|-----------------------------------------------------|
B|-----------------------------------------------------|
G|-----------------------------------------------------|
D|--4-4-4-4-4-4-4-4--7-7-7-7-7-7-7-7-------------------|
A|--2-2-2-2-2-2-2-2--5-5-5-5-5-5-5-5--4-4-4-4-4-4-4-4--|
E|------------------------------------2-2-2-2-2-2-2-2--|

e|--------------------|------|
B|--------------------|------|
G|--------------------|------|
D|--4--x-x-x-x--(x4)--|--7~--|
A|--2--x-x-x-x--------|--5~--|
E|--------------------|------|

The D
e|--------------------------------------------------------------------|
B|--------------------------------------------------------------------|
G|----------3--------------7---------------------------------------3--| x2
D|------5-----5--------8-----8---8----12-------12--------------5------|
A|----5---5-----5----8---8-----8---------12-------12----12---5---5----|
E|--3-------------\6---------------10-------10-------10----3----------|

e|------------------------------------------|
B|------------------------------------------|
G|----------3------------------12-----------|
D|------5-----5----------13-------13----13--|
A|----5---5-----5-----13----13-------13-----|
E|--3-------------\11-----------------------|

e|------------------------------------|
B|------------------------------------|
G|----------7--------------------11~--|
D|------8-----8---8--------12---------|
A|----8---8-----8--------12---12------|
E|--6-----------------10--------------|

"C'mon Kage Now It's Time To Blow Doors Down!"
e|-------------------------------6--6--6-6-6--6-6-6--8---8--8--8---|
B|-------------------------------8--8--8-8-8--6-6-6--10--10-10-10--|
G|-------------------------------8--8--8-8-8--7-7-7--10--10-10-10--| x2
D|--5--5--5-3-5-3-5-5-3-5-3-5-3--8--8--8-8-8--8-8-8--10--10-10-10--|
A|--5--5--5-3-5-3-5-5-3-5-3-5-3--6--6--6-6-6--8-8-8--8---8--8--8---|
E|--3--3--3-3-3-3-3-3-3-3-3-3-3---------------6-6-6----------------|

e|-------------------------------6--6--6-6-6--6-6-6------------|
B|-------------------------------8--8--8-8-8--6-6-6------------|
G|-------------------------------8--8--8-8-8--7-7-7--2--2-2-2--|
D|--5--5--5-3-5-3-5-5-3-5-3-5-3--8--8--8-8-8--8-8-8--3--3-3-3--|
A|--5--5--5-3-5-3-5-5-3-5-3-5-3--6--6--6-6-6--8-8-8--3--3-3-3--|
E|--3--3--3-3-3-3-3-3-3-3-3-3-3---------------6-6-6--1--1-1-1--|

e|-------------------------------6--6--6-6-6--6-6-6----------------|
B|-------------------------------8--8--8-8-8--6-6-6----------------|
G|-------------------------------8--8--8-8-8--7-7-7--12--12-12-12--|
D|--5--5--5-3-5-3-5-5-3-5-3-5-3--8--8--8-8-8--8-8-8--12--12-12-12--|
A|--5--5--5-3-5-3-5-5-3-5-3-5-3--6--6--6-6-6--8-8-8--10--10-10-10--|
E|--3--3--3-3-3-3-3-3-3-3-3-3-3---------------6-6-6----------------|

"Hey Anti-Christer..."
e|----------------------------------------------------------------------|
B|----------------------------------------------------------------------|
G|-------------------7-7-7-7-7-7-7-7-------------------7-7-7-7-7-7-7-7--| x2
D|--5-5-5-5-5-5-5-5--7-7-7-7-7-7-7-7--8-8-8-8-8-8-8-8--7-7-7-7-7-7-7-7--|
A|--5-5-5-5-5-5-5-5--5-5-5-5-5-5-5-5--8-8-8-8-8-8-8-8--5-5-5-5-5-5-5-5--|
E|--3-3-3-3-3-3-3-3-------------------6-6-6-6-6-6-6-6-------------------|

e|----------------------------------------------------------------------|
B|----------------------------------------------------------------------|
G|-------------------7-7-7-7-7-7-7-7------------------------------------|
D|--5-5-5-5-5-5-5-5--7-7-7-7-7-7-7-7--8-8-8-8-8-8-8-8--3-3-3-3-3-3-3-3--|
A|--5-5-5-5-5-5-5-5--5-5-5-5-5-5-5-5--8-8-8-8-8-8-8-8--3-3-3-3-3-3-3-3--|
E|--3-3-3-3-3-3-3-3-------------------6-6-6-6-6-6-6-6--1-1-1-1-1-1-1-1--|

	(Electric guitar)
e|----------------------------------------------|
B|----------------------------------------------|
G|-------------7----7--7-------------7----7--7--| x2
D|--5----5--5--x----x--x--8----8--8--x----x--x--|
A|--x----x--x--5----5--5--x----x--x--5----5--5--|
E|--3----3--3-------------6----6--6-------------|

e|-------------------------------------------------|
B|-------------------------------------------------|
G|-------------7----7--7-------------10----10--10--|
D|--5----5--5--x----x--x--8----8--8--x-----x---x---|
A|--x----x--x--5----5--5--x----x--x--8-----8---8---|
E|--3----3--3-------------6----6--6----------------|

We Are The D
e|--------------------------|
B|--------------------------|
G|--------7--7--3--3--------| x2
D|--5--5--7--7--3--3--3--3--|
A|--5--5--5--5--1--1--3--3--|
E|--3--3--------------1--1--|

e|-------------------------------------------------------------------|
B|-------------------------------------------------------------------|
G|------------------7-7-7-7-7-7-7-7-3-3-3-3-3-3-3-3------------------| x2
D|--5-5-5-5-5-5-5-5-7-7-7-7-7-7-7-7-3-3-3-3-3-3-3-3-3-3-3-3-3-3-3-3--|
A|--5-5-5-5-5-5-5-5-5-5-5-5-5-5-5-5-1-1-1-1-1-1-1-1-3-3-3-3-3-3-3-3--|
E|--3-3-3-3-3-3-3-3---------------------------------1-1-1-1-1-1-1-1--|

e|------------------------------------------------|
B|------------------------------------------------|
G|------------------------------------------------|
D|--5---5-5-5-5---5-5-5-5---5-5-5-5-5-5-5-5-5--5--|
A|--5---5-5-5-5---5-5-5-5---5-5-5-5-5-5-5-5-5--5--|
E|--3---3-3-3-3---3-3-3-3---3-3-3-3-3-3-3-3-3--3--|

The Devil Response
e|-------------------------------------------------------------------------|
B|-------------------------------------------------------------------------|
G|-------------------------------------------------------------------------|
D|-------------------------------------------------------------------------|
A|-------------------------------------1-0-1-x-1-1-0-1-x-1-1-0-1-x-1-1-0-1-|
E|-3-1-3-x-3-3-1-3-x-3-3-1-3-x-3-3-1-3-------------------------------------|

Devil Loses Horn
e|-------------------------------------------------------------------|
B|-------------------------------------------------------------------|
G|-------------------------------------------------------------------|
D|-------------------------------------------------------------------|
A|-5-5-5-5-5-5-5-5-5-5-5-5-5-5-5-5--5-4-5-4-5-4-5-4-5-4-5-4-5-4-5-4--|
E|-------------------------------------------------------------------|

Devil Goes Back To Hell
e|------------------------------------------------------------------|
B|------------------------------------------------------------------|
G|------------------------------------------------------------------| x2
D|--5--------4--------7--------6--------8--------12--------11-------|
A|--3-(x8)---2-(x8)---5-(x8)---4-(x8)---7-(x8)---10-(x8)---9--(x8)--|
E|------------------------------------------------------------------|

e|---------------------|---------------------------------------------------|
B|---------------------|---------------------------------------------------|
G|---------------------|---------------------------------------------------|
D|--12--------11-------|--12-11-12-11-12-11-12-11-12-11-12-11-12-11-12-11--|
A|--10-(x8)---9--(x8)--|--10-9--10-9--10-9--10-9--10-9--10-9--10-9--10-9---|
E|---------------------|---------------------------------------------------|

End
e|--------------|--1-1-1~--------|------|
B|--------------|--3-3-3~--------|------|
G|--------------|--2-2-2~--------|------|
D|--12~---------|--0-0-0~--------|--0~--|
A|--12~---------|----------------|------|
E|--10~---------|----------------|------|
  Electric ^      Acoustic ^      Bell ^


baby
INTRO-
e|-------------|-------------|-------------|-------------||
B|-------------|-------------|-------------|-------------||
G|-----1---1---|-----2---2---|-----4---4---|-----2---2---||
D|-------------|-------------|-------------|-------------||
A|---2---2---2-|---4---4---4-|---6---6---6-|---4---4---4-||
E|-0-----------|-0-----------|-0-----------|-0-----------||
                                                       I

VERSE 1-
e|-------------|-------------|-------------|-------------|
B|-------------|-------------|-------------|-------------|
G|-----1---1---|-----2---2---|-----4---4---|-----2---2---|
D|-------------|-------------|-------------|-------------|
A|---2---2---2-|---4---4---4-|---6---6---6-|---4---4---4-|
E|-0-----------|-0-----------|-0-----------|-0-----------|
  can't          get      to   sleep tonight           No

e|-------------|-------------|-------------|-------------|
B|-------------|-------------|-------------|-------------|
G|-----1---1---|-----2---2---|-----4---4---|----6--------|
D|-------------|-------------|-------------|---7---------|
A|---2---2---2-|---4---4---4-|---6---6---6-|--7----------|
E|-0-----------|-0-----------|-0-----------|-0-----------|
  matter       how  hard   I   try                  cos its
      
e|-------------|-------------|-------------|-------------|
B|---5-----5---|---4-----4---|---5-----5---|---4-----4---|
G|-----6-----6-|-----4-----4-|-----6-----6-|-----4-----4-|
D|-------6-----|-------4-----|-------6-----|-------4-----|
A|-4-----------|-2-----------|-4-----------|-2-----------|
E|-------------|-------------|-------------|-------------|
  cold  and its dark   andthe  wind     is  whistling  and I

e|---------0---|-------------|-------------|-2-----------|
B|---2-------2-|---2-------2-|-----------4-|-------------|
G|-----2-------|-----2---2---|-----4---4---|-------------|
D|-------2-----|-------2-----|---4---4-----|-------------|
A|-0-----------|-0-----------|-2-----------|-------------|
E|-------------|-------------|-------------|-------------|
 can't  seem to  put out  the light

   VERSE 2-
e|-------------|-------------|-------------|-------------|
B|-------------|-------------|-------------|-------------|
G|-----1---1---|-----2---2---|-----4---4---|-----2---2---|
D|-------------|-------------|-------------|-------------|
A|---2---2---2-|---4---4---4-|---6---6---6-|---4---4---4-|
E|-0-----------|-0-----------|-0-----------|-0-----------|
   Mommas been  searching for  baby                   but

e|-------------|-------------|-------------|-------------|
B|-------------|-------------|-------------|-------------|
G|-----1---1---|-----2---2---|-----4---4---|----6--------|
D|-------------|-------------|-------------|---7---------|
A|---2---2---2-|---4---4---4-|---6---6---6-|--7----------|
E|-0-----------|-0-----------|-0-----------|-0-----------|
  baby     been trying   to get   home             cos its

e|-------------|-------------|-------------|-------------|
B|---5-----5---|---4-----4---|---5-----5---|---4-----4---|
G|-----6-----6-|-----4-----4-|-----6-----6-|-----4-----4-|
D|-------6-----|-------4-----|-------6-----|-------4-----|
A|-4-----------|-2-----------|-4-----------|-2-----------|
E|-------------|-------------|-------------|-------------|
 cold  and its  dark    andthe moon  cannot lie         the

e|---------0---|-----0-------|---------2---|-------------|
B|---2-------2-|----2--------|-------4-----|-------------|
G|-----2-------|---2---------|-----4-------|-------------|
D|-------2-----|--2----------|---4---------|-------------|
A|-0-----------|-0-----------|-2-----------|-------------|
E|-------------|-------------|-------------|-------------|
 way                      and daddies gone........(bye bye)



(INTRO AGAIN)

e|-------------|-------------|-------------|-------------|-------------||
B|-------------|-------------|-------------|-------------|-------------||
G|-----1---1---|-----2---2---|-----4---4---|-6---7---8---|-9-----------||
D|-------------|-------------|-------------|-------------|-------------||
A|---2---2---2-|---4---4---4-|---6---6---6-|-7---8---9---|-11----------||
E|-0-----------|-0-----------|-0-----------|-0-----------|-0-----------||


History
E|-------------------------------------------------------------------------|
B|-------------------------------------------------------------------------|
G|--9/11-11-11-11-11-11-9-9/11-11-11-11-11--5-5-9-9-9-9-11-9-7-------------|
D|--0----0--0--0--0--0--0-0----0--0--0--0---0-0-0-0-0-0-0--0-0-------------|
A|-------------------------------------------------------------------------|
E|-------------------------------------------------------------------------|
this is a song called the history of tenacious d and its not just a list of

E|-------------------------------------------------------------------------|
B|-------------------------------------------------------------------------|
G|--5/7-7-7-7-5/7-7-7-7-12-11-7--5-5-9-9-9-9-11-9-7------------------------|
D|--0---0-0-0-0---0-0-0-0--0--0--0-0-0-0-0-0-0--0-0------------------------|
A|-------------------------------------------------------------------------|
E|-------------------------------------------------------------------------|
bullshit things that we've done in the past,but its a chronicling of our rise to POWER!

E|-2-2-2-2-3-2-0-2-2-2-2-3-2-0-0-0-0-0-0-0-3-3-3-3-3-----------------------|
B|-3-3-3-3-3-3-3-3-3-3-3-3-3-3-1-1-1-1-1-1-1-1-1-1-1-----------------------|
G|-2-2-2-2-2-2-2-2-2-2-2-2-2-2-0-0-0-0-0-0-0-0-0-0-0-----------------------|
D|-----------------------------2-2-2-2-2-2-2-2-2-2-2-----------------------|
A|-----------------------------3-3-3-3-3-3-3-3-3-3-3-----------------------|
E|-------------------------------------------------------------------------|
we ride with kings on mighty steeds across the devil's plain

E|-2-2-2-2-3-2-0-2-2-2-2-3-2-0-0-0-0-0-0-0-0-0-3-3-3-3-3-------------------|
B|-3-3-3-3-3-3-3-3-3-3-3-3-3-3-1-1-1-1-1-1-1-1-0-0-0-0-0-------------------|
G|-2-2-2-2-2-2-2-2-2-2-2-2-2-2-0-0-0-0-0-0-0-0-0-0-0-0-0-------------------|
D|-----------------------------2-2-2-2-2-2-2-2-0-0-0-0-0-------------------|
A|-----------------------------3-3-3-3-3-3-3-3-2-2-2-2-2-------------------|
E|---------------------------------------------3-3-3-3-3-------------------|
we've walked with Jesus and his cross he did not die in vain No!

E|--2-2-2-2-3-2-0-2-2-2-2-3-2-0-0-0-0-0-0-0-3-3-3-3-3----------------------|
B|--3-3-3-3-3-3-3-3-3-3-3-3-3-3-1-1-1-1-1-1-1-1-1-1-1----------------------|
G|.-2-2-2-2-2-2-2-2-2-2-2-2-2-2-0-0-0-0-0-0-0-0-0-0-0----------------------|
D|.-----------------------------2-2-2-2-2-2-2-2-2-2-2----------------------|
A|------------------------------3-3-3-3-3-3-3-3-3-3-3----------------------|
E|-------------------------------------------------------------------------|
1.
2.Rock!
E|-2-2-2-2-3-2-0-2-2-2-2-3-2-0-0-0-0-0-0-0-3-3-3-3-3-----------------------|
B|-3-3-3-3-3-3-3-3-3-3-3-3-3-3-1-1-1-1-1-1-1-1-1-1-1-----------------------|
G|-2-2-2-2-2-2-2-2-2-2-2-2-2-2-0-0-0-0-0-0-0-0-0-0-0-----------------------|
D|-----------------------------2-2-2-2-2-2-2-2-2-2-2-----------------------|
A|-----------------------------3-3-3-3-3-3-3-3-3-3-3-----------------------|
E|-------------------------------------------------------------------------|
1.we' ve run with wolves we've climbed K2 even stopped a moving train
2.we ride we ride and we'll never subside we'll ride till the planets collide
E|-2-2-2-2-3-2-0-2-2-2-2-3-2-0-0-0-0-0-0-0-0-0-3-3-3-3-3-------------------|
B|-3-3-3-3-3-3-3-3-3-3-3-3-3-3-1-1-1-1-1-1-1-1-0-0-0-0-0-------------------|
G|-2-2-2-2-2-2-2-2-2-2-2-2-2-2-0-0-0-0-0-0-0-0-0-0-0-0-0------------------.|
D|-----------------------------2-2-2-2-2-2-2-2-0-0-0-0-0------------------.|
A|-----------------------------3-3-3-3-3-3-3-3-2-2-2-2-2-------------------|
E|---------------------------------------------3-3-3-3-3-------------------|
1.we've travelled through space and time my friends to rock this house again
2.and if you say that we do not ride, I'll turn your fucking hide

E|-2-2-2-2-3-2-0-2-2-2-2-3-2-0-0-0-0-0-0-0-3-3-3-3-3-----------------------|
B|-3-3-3-3-3-3-3-3-3-3-3-3-3-3-1-1-1-1-1-1-1-1-1-1-1-----------------------|
G|-2-2-2-2-2-2-2-2-2-2-2-2-2-2-0-0-0-0-0-0-0-0-0-0-0-----------------------|
D|-----------------------------2-2-2-2-2-2-2-2-2-2-2-----------------------|
A|-----------------------------3-3-3-3-3-3-3-3-3-3-3-----------------------|
E|-------------------------------------------------------------------------|
2.Ride!
E|-2-2-2-2-3-2-0-2-------------0-------------------------------------------|
B|-3-3-3-3-3-3-3-3-------------1-------------------------------------------|
G|-2-2-2-2-2-2-2-2-------------0-------------------------------------------|
D|-----------------------------2-------------------------------------------|
A|-----------------------------3-------------------------------------------|
E|-------------------------------------------------------------------------|
Kyle's fingers be silver Jack's voice then be gold both lest you think we're vain

E|-2-2-2-2-3-2-0-2-2-2-2-3-2-0-0-0-0-0-0-0-0-0-3-3-3-3-3-------------------|
B|-3-3-3-3-3-3-3-3-3-3-3-3-3-3-1-1-1-1-1-1-1-1-0-0-0-0-0-------------------|
G|-2-2-2-2-2-2-2-2-2-2-2-2-2-2-0-0-0-0-0-0-0-0-0-0-0-0-0-------------------|
D|-----------------------------2-2-2-2-2-2-2-2-0-0-0-0-0-------------------|
A|-----------------------------3-3-3-3-3-3-3-3-2-2-2-2-2-------------------|
E|---------------------------------------------3-3-3-3-3-------------------|
we know your all robots and we don't care Tenacious D we reign!...
E|-2-2-2-2-3-2-0-2-2-2-2-3-2-0-0-0-0-0-0-0-3-3-3-3-3-----------------------|
B|-3-3-3-3-3-3-3-3-3-3-3-3-3-3-1-1-1-1-1-1-1-1-1-1-1-----------------------|
G|-2-2-2-2-2-2-2-2-2-2-2-2-2-2-0-0-0-0-0-0-0-0-0-0-0-----------------------|
D|-----------------------------2-2-2-2-2-2-2-2-2-2-2-----------------------|
A|-----------------------------3-3-3-3-3-3-3-3-3-3-3-----------------------|
E|-------------------------------------------------------------------------|
                                                  we reign!...
E|-2-2-2-2-3-2-0-2-2-2-2-3-2-0-0-0-0-0-3-3-3-3-0-0-0-0-2-------------------|
B|-3-3-3-3-3-3-3-3-3-3-3-3-3-3-1-1-1-1-0-0-0-0-1-1-1-1-3-------------------|
G|-2-2-2-2-2-2-2-2-2-2-2-2-2-2-0-0-0-0-0-0-0-0-0-0-0-0-2-------------------|
D|-----------------------------2-2-2-2-0-0-0-0-2-2-2-2---------------------|
A|-----------------------------3-3-3-3-2-2-2-2-3-3-3-3---------------------|
E|-------------------------------------3-3-3-3-----------------------------|
supreme of the,      OH YEAH!                          Burrito supreme,
E|-0-0-0-0-3-3-3-3-0-0-0-0-2---------------0-0-0-0-3-3-3-3-0-0-0-0-2-------|
B|-1-1-1-1-0-0-0-0-1-1-1-1-3---------------1-1-1-1-0-0-0-0-1-1-1-1-3-------|
G|-0-0-0-0-0-0-0-0-0-0-0-0-2---------------0-0-0-0-0-0-0-0-0-0-0-0-2-------|
D|-2-2-2-2-0-0-0-0-2-2-2-2-----------------2-2-2-2-0-0-0-0-2-2-2-2---------|
A|-3-3-3-3-2-2-2-2-3-3-3-3-----------------3-3-3-3-2-2-2-2-3-3-3-3---------|
E|---------3-3-3-3---------------------------------------3-3-3-3-----------|
                          chicken supreme                    cutless supreme

E|-0-0-0-0-3-3-3-3-0-0-0-0-2-------------- 0-0-0-0-3-3-3-3-0-0-0-0-2-------|
B|-1-1-1-1-0-0-0-0-1-1-1-1-3---------------1-1-1-1-0-0-0-0-1-1-1-1-3-------|
G|-0-0-0-0-0-0-0-0-0-0-0-0-2-------------- 0-0-0-0-0-0-0-0-0-0-0-0-2-------|
D|-2-2-2-2-0-0-0-0-2-2-2-2-----------------2-2-2-2-0-0-0-0-2-2-2-2---------|
A|-3-3-3-3-2-2-2-2-3-3-3-3-----------------3-3-3-3-2-2-2-2-3-3-3-3---------|
E|---------3-3-3-3-------------------------3-3-3-3-------------------------|
                         Supreme,go now Kyle 123

E|-------0-0-0-0-3-3-3-3-0-0-0-0-2---------------0-0-0-0-3-3-3-3-0-0-0-0-2-|
B|-------1-1-1-1-0-0-0-0-1-1-1-1-3---------------1-1-1-1-0-0-0-0-1-1-1-1-3-|
G|-------0-0-0-0-0-0-0-0-0-0-0-0-2---------------0-0-0-0-0-0-0-0-0-0-0-0-2-|
D|-------2-2-2-2-0-0-0-0-2-2-2-2-----------------2-2-2-2-0-0-0-0-2-2-2-2---|
A|-------3-3-3-3-2-2-2-2-3-3-3-3-----------------3-3-3-3-2-2-2-2-3-3-3-3---|
E|---------------3-3-3-3---------------------------------3-3-3-3-----------|
Supreme,go now Kyle 123        Supreme,go now Kyle 123          Burrito
                                                                   Supreme
E|-0-0-0-0-3-3-3-3-0-0-0-0-2--0-0-0-0-3-3-3-3-0-0-0-0-2--------------------|
B|-1-1-1-1-0-0-0-0-1-1-1-1-3--1-1-1-1-0-0-0-0-1-1-1-1-3--------------------|
G|-0-0-0-0-0-0-0-0-0-0-0-0-2--0-0-0-0-0-0-0-0-0-0-0-0-2--------------------|
D|-2-2-2-2-0-0-0-0-2-2-2-2----2-2-2-2-0-0-0-0-2-2-2-2----------------------|
A|-3-3-3-3-2-2-2-2-3-3-3-3----3-3-3-3-2-2-2-2-3-3-3-3----------------------|
E|---------3-3-3-3--------------------3-3-3-3------------------------------|
                   chicken supreme            cutless supreme
E|-0-0-0-0-3-3-3-3-0-0-0-0-2-----------------------------------------------|
B|-1-1-1-1-0-0-0-0-1-1-1-1-3-----------------------------------------------|
G|-0-0-0-0-0-0-0-0-0-0-0-0-2-----------------------------------------------|
D|-2-2-2-2-0-0-0-0-2-2-2-2-------------------------------------------------|
A|-3-3-3-3-2-2-2-2-3-3-3-3-------------------------------------------------|
E|---------3-3-3-3---------------------------------------------------------|

Sasquatch
(Bm)        A              E                 F#
There was some scientists tryin to figure out the Sasquatch riddle
Bm       A                                E        F# G F#
Then they figured out it was a missing link.
Bm               A                     E                                      F#
In Search of Sasquatch... that was a kick-ass "In Search Of..."
Bm                 A        E
with Leonard Nimoy kickin out the *JAMS*.
Bm                   A               E           F#
He captured imagination.  Of people all around the globe
Bm                    A                  E           F# G F#
His name was Sasquatch... so I'm told...
Bm    A    E        F#       Bm       A    E         F# G F#  E......
His legend's ancient in the ancient scribe of the indian tribe...     apache tribe.
Scientists have proven that the Sasquatch is real.  Take a look at the plastic cast of his
foot now you know he's real.  Listen real close to the audio tape not human no you know he's
real.  Couldn't be a man in a gorilla suit no fuckin' way you know he's real.  Real, real,
real real, real, real really real...... real.

Part II:  This is the jam.  JB rocks the chords and KG rocks the solo,
short but sweet, also cue Sasquatch on the drums.  The chords are
different from part 1 so pay attention.  All chords are barre chords here.

Bm      A        C       G

(Solo)
e-------------------10----10--12--12^(whole step)-12--10-10-9--9--9--9--9--9--9--------|
b-12-12-12-12-12-12----12-------------------------------------------------------10---7-|
g--------------------------------------------------------------------------------------|
d--------------------------------------------------------------------------------------|
a--------------------------------------------------------------------------------------|
e--------------------------------------------------------------------------------------|

Don't take this personal because it's not about your playing.  No, dude
your drumming is kick ass. It's just that the D, it's always just been
me and KG.  And we're just not comfortable being a power trio.

Part III: This part isn't hard, just two chords......right?  Well the
strumming is rather difficult.  It speeds up for the vocal section,
I would practice doing it slow, then gently get faster and it will become easier for you.

  Bm   A
e-------------------------------|
b---3----3----------2-----2-----|
g-----4----4----------2----2----|  Repeat each chord as necessary.
d-4----4-----4----2-----2----2--|
a------(2)--------------(0)-----|
e-------------------------------|
I hope there's no hard feelings.

Part III (continued): This is the same as before, only faster.

Bm           A                       Bm
Sasquatch..... we know your legend's real.
Bm           A               (rest) Bm
Sasquatch..... we know your love is real.
Bm           A(strum)    

Added On December 16th, 2013

SHARE

Comments

blog comments powered by Disqus

ADVERTISEMENT