Tenacious D Tabs

Rivers Of Brown

1 versions

TAB

            -------------------------------------------------------------------------------
                             Rivers of Brow - Tenacious D
-------------------------------------------------------------------------------

Tenacious D - Rivers of Brown ( https://www.youtube.com/watch?v=JVLswMQct2Y )

Standard Tuning

e|-------2-----------3-----3--------|-------2---------3-----3------|
B|-----3---3-----------3-----3---3--|-----3---3---------3-----3----|
G|-0h2-------2---2/3-----3-----3----|-0h2-------2-2/3-----3-----3--|
D|----------------------------------|------------------------------|
A|----------------------------------|------------------------------|
E|----------------------------------|------------------------------|
        mute slap
e|---------x----------------------------|---------x-----------x----||
B|-----1---x----------------------------|-----1---x-----------x----||
G|-0h2---2-x-0------0-------0-----------|-0h2---2-x-0---------x-0--||
D|---------x----0h2---2-0h2---2---------|---------x---0h2-0h2-x-3--||
A|---------x----------------------------|---------x-----------x----||
E|---------x----------------------------|---------x-----------x----||

************************************

| /   slide up
| \   slide down
| h   hammer-on
| p   pull-off
| x   Mute note

************************************    

Added On March 27th, 2015

SHARE

Comments

blog comments powered by Disqus

ADVERTISEMENT