Tenacious D Tabs

Throwdown

1 versions

TAB

            -------------------------------------------------------------------------------
                             THROW DOWN - Tenacious D
-------------------------------------------------------------------------------
Tabbed by: Tariso
E-mail: toenang@gmail.com

Tuning: EADGBE


Intro riff:

e|---0----0-----0---0---|
B|---3b5--5br3--1---0---|
G|----------------------|
D|----------------------|
A|----------------------|
E|----------------------|


Verse riff:
           x     x              
e|------------------------------|
B|--(1)----------------1-----1--|
G|---2-----2-----2-----2--2--0--|
D|---2-----2-----2-----2--2--2--|
A|---0-----0-----0--------0-----|
E|------------------------------|
     d     d     d     u  d  u   

Am
Moses came down from a hill

Am
Holding the rules in his hands

Am
He looked all around

Am
Suddenly found

Am                    Am
No one was listening, it's time to throw down so



Chorus:

        Am   -   F  -  D  -  G
Throw Down

        Am   -   F  -  D  -  G
Throw Down

        Am   -   F  -  D  -  G
Throw Down

        E 
Throw Down



= Intro riff =


Am
Jesus turned water to wine

Am
The star in the sky was a sign

Am
They called him a liar

Am
You're not the Messiah

Am                    Am
Get out of the temple it's time to throw down so



= Chorus =


Then came a man I can't name

Because if I do I'll be maimed

They'll chop off my head

And then I'll be dead

You know who I'm talkin' about, it's time to throw down so


= Chorus =

Dm                   Am
All religions of the world today

G                    Am
We got to leave them alone

Dm                        Am
We got to use our fucking brains today 

             F
Before we're gone

             E        E       E
Before we're gooooooooooone       


Haa right now!



Breakdown Riff:

Am  -  D  -  Am  -  D

Am  -  G  -  D   -  C - G



Am
The three of them fought in the rain

Am
The world was completely insane

Am
Sound the alarms, nuclear bombs

Am
You crazy motherfucker, now it's time to throwdown so



= Chorus =


************************************

| /   slide up
| \   slide down
| h   hammer-on
| p   pull-off
| ~   vibrato
| +   harmonic
| x   Mute note
| b   Bend
| pb  Pre-bend
| br  Bend release
| pbr Pre-bend release
| brb Bend release bend

************************************    

Added On December 16th, 2013

SHARE

Comments

blog comments powered by Disqus

ADVERTISEMENT