Testament Tabs

Agony

1 versions

TAB

            Agony Tab by Testament


-Downloaded from Fatal's Testament page-
         -Http://Testament.cjb.net-
-email: fatal@netc.pt-

Agony from ritual album
intro riff (and background during most lyrics)
  
E--------------------------------|---------------------------------------------|
B--------------------------------|--10~~---12~~--13/15---10~~--8~~ p.harmonic--|
G---------------------5---4----2-|--9~~----11~~--12/14---9~~-------------------|
D--2-----3-----2-----/3---2----0-|--7~~---~9~~---10/12---7~~-------------------|
A--2-----3-----2-----/3---2----0-|---------------------------------------------|
E--0-0-0-1-0-0-0-0-0-------------|---------------------------------------------|
                                                                    
                        Let ring--\
E-------------------------------------|
B--10~~--12~~--13/15--15--12----------|
G--9~~---11~~--12/14--14-----14-------|
D--7~~---9~~---10/12--12--------------|
A-------------------------------------|
E-------------------------------------|
                                                                    

Verse

"fight on but what to gain, misfortune leads to pain.."

E--------------------------------|-------------------|
B--------------------------------|---10~~-----12~~---|
G---------------------5---4----2-|---9~~------11~~---|
D--2-----3-----2-----/3---2----0-|---7~~------9~~----|
A--2-----3-----2-----/3---2----0-|-------------------|
E--0-0-0-1-0-0-0-0-0-------------|-------------------|

that's all..    

Added On December 12th, 2013

SHARE

Comments

blog comments powered by Disqus

ADVERTISEMENT