The Academy Is Tabs

Ghost

1 versions

TAB

            --------------------------------------------|
                 Ghost - The Academy Is... -|
Tabbed by: selisa1990
album: Santi

 Intro
e|----------------------------|------------------------------|
B|---------2---------2h3p2----|---------2-------2h3p2--------|
G|------2---------------------|------2-----------------------|
D|---4---------4--------------|---2---------2----------------|
A|----------------------------|------------------------------|
E|----------------------------|------------------------------|

e|----------------------------|------------------------------|
B|---------2---------2h3p2----|---------2-------2h3p2--------|
G|------2---------------------|------2-----------------------|
D|---0---------0--------------|---3---------3----------------|
A|----------------------------|------------------------------|
E|----------------------------|------------------------------|


PreChorus
e|----------------------|
B|-----7~----9~---------|
G|-----7~----9~---------|
D|-----7~----9~---------|
A|-----5~----7~---------|
E|----------------------|

Chorus
e|------------|------------|------------|
B|------------|---7--------|---9--------|
G|---6--------|---7--------|---9--------|   (2x)
D|---7--x16---|---7--x16---|---9--x16---|
A|---7--------|---5--------|---7--------|
E|---5--------|------------|------------|

Then
e|---------------------------------------|
B|---------------------------------------|
G|---11--11-----11--11--9-9-9-9----------|
D|---11--11-----11--11--9-9-9-9----------|
A|---9---9------9---9---7-7-7-7----------|
E|---------------------------------------|


Great song. hope you like this tab :]
I'll add the solo later. Santi :P


| /  slide up
| \  slide down
| h  hammer-on
| p  pull-off
| ~  vibrato
| +  harmonic
| x  Mute note
============================================================    

Added On December 16th, 2013

SHARE

Comments

blog comments powered by Disqus

ADVERTISEMENT