The Academy Is Tabs

Season

2 versions

TAB

            Season Tab by The Academy Is


"Season" by The Academy Is

Intro/Verse Gtr 1
e|----------------|       ----------------------------------|
b|---2------------|       ----------------------------------|
g|----2-----------|       ----------------------------------|
d|-----4-454-4-454| twice -777-7777-777---------------------|
a|--2-------------|       -555-5555-555------222--4-55------|
E|----------------|       -------------------000--2-33------|

Intro/Verse Gtr 2
e|--12-------------------------12----------------------------|
b|-----14-------------------------14-------------------------|
g|--------14-------------------------14----------------------|
d|-----------16----11h12p11-------------16—11h12p11—11h12-12-|
a|--------------14------------------------14-----------------|
E|-----------------------------------------------------------|

Pre-Chorus Both                  x2
e|--------------------------|         e|-------------|
b|--------------------------|         b|-------------|
g|--11--11---11-11--7-7-7-7-|         g|---7777-7777-|
d|---x---x----x--x--x-x-x-x-|         d|---xxxx-xxxx-|
a|---9---9----9--9--5-5-5-5-|         a|---5555-5555-|
E|--------------------------|         E|-------------|

Chorus Both
e|---------------|
b|---------------|
g|--7~-----4~-2~-|
d|--7~-5~--4~-2~-|
a|--5~-5~--2~-0~-|
E|-----3~--------|

Bridge Gtr 1
e|---------------------------------------------------------------------|
b|---------------------------------------------------------------------|
g|-4444-44444-44444-6666-66666-66666-----------------------------------|
d|-4444-44444-44444-6666-66666-66666-2222-22222-22222-5555-55555-55555-|
a|-2222-22222-22222-4444-44444-44444-2222-22222-22222-5555-55555-55555-|
E|-----------------------------------0000-00000-00000-3333-33333-33333-|

Bridge Gtr 2
e|---------------------------------------------------------------------|
b|---------------------------------------------------------------------|
g|-4444-44444-44444-6666-66666-66666-9999-99999-99999-7777-77777-77777-|
d|-4444-44444-44444-6666-66666-66666-9999-99999-99999-7777-77777-77777-|
a|-2222-22222-22222-4444-44444-44444-7777-77777-77777-5555-55555-55555-|
E|---------------------------------------------------------------------|

Bridge End Both
e|--------------------|
b|--------------------|
g|-6~-----------------|
d|-6~-2~-7~--55555555-|
a|-4~-2~-7~--55555555-|
E|----0~-5~--33333333-|
             ........

If you have anything to say: ffafrox@aol.com or IM ffafrox    

Added On December 12th, 2013

SHARE

Comments

blog comments powered by Disqus

VERSIONS

ADVERTISEMENT