The Chariot Tabs

They Faced Each Other

2 versions

TAB

            The Chariot
  They Faced Each Other
  The Fiancée

this is an insane song. this band is insane. and there aren't enough 
tabs for this band. so if you know a song for this band, tab it! please!

|-------------------------------------|
|-------------------------------------|
|-6/5-6/5-----------6/5-6/5-----------|this is played at the beginning
|-x/x-x/x-333222000-x/x-x/x-333222000-|
|-4/3-4/3-333222000-4/3-4/3-333222000-|
|---------333222000---------333222000-|

|-------------------------------------|
|-------------------------------------|
|-6-5-4-------------6-5-4-------------|then this is played
|-x-x-x-3-3-3-3-3-3-x-x-x-3-3-3-3-3-3-|
|-4-3-2-3-3-3-3-3-3-4-3-2-3-3-3-3-3-3-|
|-------3-3-3-3-3-3-------3-3-3-3-3-3-|

|-------|
|-------|
|-6/5\6-|then this
|-x/x\x-|
|-4/3\4-|
|-------|

|-------------------------------------|
|-------------------------------------|
|-6/5-6/5-----------6/5-6/5-----------|this part again
|-x/x-x/x-333222000-x/x-x/x-333222000-|
|-4/3-4/3-333222000-4/3-4/3-333222000-|
|---------333222000---------333222000-|

|----------------|
|----------------|
|----------------|this is played for a while
|-77777777777777-|
|-77777777777777-|
|-77777777777777-|

|---------|
|---------|
|---------|then this
|-2-5-2-0-|
|-2-5-2-0-|
|-2-5-2-0-|

they play some noises and slide stuff between that part, but i
don't know them.

well thats all i got for it. i know its not the whole song but i tried
my best.

Please Rate!!!!    

Added On December 16th, 2013

SHARE

Comments

blog comments powered by Disqus

VERSIONS

ADVERTISEMENT