The Chariot Tabs

Yanni Depp

2 versions

TAB

            ---------------------------------------------------------------------------
			     yanni depp - chariot
----------------------------------------------------------------------------
Tabbed by:karlon
Email:kmak6969@aim.com

Tuning:drop d
 guitar1                        break down
e|-------------------------------------------------------------------------|
B|-------------------------------------------------------------------------|
G|-------------------------------------------------------------------------|
D|--------------------------------------------------------------3----5-----|
A|--------------------------------------------------------------3----5-----|
D|-0-------------------0-0-0-0----------------------------------3----5-----|
PM .                   . . . .
guitar2
e|-------------------------------------------------------------------------|
B|---4-4-4-4-4-4-4-4-4-4-4-4-4-4-4-4-4-4-4-4-4-4-4-4-4-4-4-4-4-------------|
G|---7-7-7-7-7-7-7-7-7-7-7-7-7-7-7-7-7-7-7-7-7-7-7-7-7-7-7-7-7-------------|
D|--------------------------------------------------------------3----5-----|
A|--------------------------------------------------------------3----5-----|
D|--------------------------------------------------------------3----5-----|

 guitar1                        break down
e|-------------------------------------------------------------------------|
B|-------------------------------------------------------------------------|
G|-------------------------------------------------------------------------|
D|--------------------------------------------------------------3----5-----|
A|--------------------------------------------------------------3----5-----|
D|-0-------------------0-0-0-0----------------------------------3----5-----|
PM .                   . . . .


guitar2
e|-------------------------------------------------------------------------|
B|---4-4-4--4-4-4--4-4-4--4-4-4--4-4-4--4-4-4--4-4-4--4-4-4-4--------------|
G|---7-7-7--7-7-7--7-7-7--7-7-7--7-7-7--7-7-7--7-7-7--7-7-7-7--------------|
D|--------------------------------------------------------------3----5-----|
A|--------------------------------------------------------------3----5-----|
D|--------------------------------------------------------------3----5-----|




| /  slide up
| \  slide down
| h  hammer-on
| p  pull-off
| ~  vibrato
| +  harmonic
| x  Mute note
===============================================================================    

Added On December 16th, 2013

SHARE

Comments

blog comments powered by Disqus

VERSIONS

ADVERTISEMENT