The Classic Crime Tabs

We All Look Elsewhere

1 versions

TAB

            Hey, this is how it's played:
Legend:
 pm__-palm mute
 \/-vibrato
 h-hammer
 p-pulloff
 \-slide up
 /-slide down
r-10th fret
(extra strumming than noted may be required)
  Intro w/ distortion
  Guitar 1
e----------------------------------------------------------------------|
b----------------------------------------------------------------------|
g-777------777------------------------777------777---------------------|
d-777------777------rrr------rrr------777------777------rrr-----rrr----|
a-555------555------rrr------rrr------555------555------rrr-----rrr----|
E-555------555------888------888------555------555------888-----888----|
   Guitar 2
e---------------------------------------------------------7-----7-------|
b----------------------------------------------------9-------8-----87---|
g--------------------------------------------7h99-7h9-9p77--9--9--9--7--|
d-----------------------------------------7h9---------------------------|
a-----------------------------------------------------------------------|
E-----------------------------------------------------------------------|
Verse 1:
   Guitar 1
e---------------------------------------------------------------------------|
b---------------------------------------------------------------------------|
g---------------------------------------------------------------------------|
d---------------------------------------------------------------------------|
a-777777777777777777777777--rr--rr--77--99----777777777777777777777777------|
E-000000000000000000000000--88--88--55--77----000000000000000000000000------|
pm__________________________________________________________________________
    Guitar 2
e---------------------------------------------------------------------------|
b---------------------------------------------------------------------------|
g---------------------------------------------------------------------------|
d------------------797-----------------------------797---------797----------|
a-------------7-79r---r97-----r9--r9--r9--r9--7-79r---r97-7-79r---r97-------|
E--------------0---------r---------------------0---------r-0---------r------|
pm________________________                  pm__________________________
Verse1 (cont):         Pre-Chorus:

     Guitar 1
e----------------------|----------------------------------------------------|
b----------------------|----------------------------------------------------|
g------------------9---|999---999---------------999---999-------------------|
d----------------------|999---999---rrr---rrr---999---999---rrr---rrr-------|
a-rr--rr--77--99-------|777---777---rrr---rrr---777---777---rrr---rrr-------|
E-88--88--55--77-------|777---777---888---888---777---777---888---888-------|
pm______________   \/
     Guitar 2
e----------------------|----------------------------------------------------|
b----------------------|----------------------------------------------------|
g----------------------|---------------------------14-----12----------------|
d----------------------|---------------------------x------x-----------------|
a------------------7---|---------------------------12-----r-----------------|
E---r9--r9--r9--r9-----|----------------------------------------------------|
                   \/
Chorus:
      Guitar 1
e---------------------------------------------------------------------------|
b---------------------------------------------------------------------------|
g-----9----11--------------------------X2-----------------------------------|
d-----x----x---12---14------------------------------------------------------|
a-----7----9---x----x------rrr99r9rrr9--------------------------------------|
E-----0----0---r----12-----88----788----------------------------------------|
      Guitar 2
e-----12---r----------------------------------------------------------------|
b-r\12--r12-12r-------------------------------------------------------------|
g--------------1211-----119------------X2--(second time slide to 7 on g)----|
d------------------12912----------------------------------------------------|
a---------------------------------------------------------------------------|
E---------------------------------------------------------------------------|
Fill In:
      Guitar 2
e---------------------------------------------------------------------------|
b---------------------------------------------------------------------------|
g-------------------------------------PLAY VERSE 2 AND PRE-CHORUS-----------|
d------797--------7--------------------THE SAME AS THE FIRST TIME-----------|
a-7-79r---r97-7-7r-r9--9r9--------------------------------------------------|
E--0---------r-0-----r7-----------------------------------------------------|
pm_____________________
Bridge:
       Guitar 1
e---------------------------------------------------------------------------|
b---------------------------------------------------------------------------|
g-777777777777999999999999------------777777777777--------------------------|
d-777777777777999999999999555555555555777777777777555555555555999999999999--|
a-555555555555777777777777555555555555555555555555333333333333777777777777--|
E-------------000000000000333333333333--------------------------------------|
                                                pm_______________________   Guitar 2
e---------------------------------------------------------------------------|
b---------------------------------------------------------------------------|
g-777777777777999999999999------------777777777777--------------------------|
d-777777777777999999999999555555555555777777777777--------------------------|
a-555555555555777777777777555555555555555555555555--------------------------|
E-------------000000000000333333333333--------------------------------------|

       Guitar 1
e---------------------------------------------------------------------------|
b---------------------------------------------------------------------------|
g-------------------------555555555555999999999999------------777777777777--|
d-777777777777777777777777555555555555999999999999555555555555777777777777--|
a-555555555555555555555555333333333333777777777777555555555555555555555555--|
E-------------------------------------000000000000333333333333--------------|
pm________________________
       Guitar 2
e---------------------------------------------------------------------------|
b---------------------------------------------------------------------------|
g------11-\--12----/11----555555555559999999999999------------777777777777--|
d-------x-\---x----/x-----555555555555999999999999555555555555777777777777--|
a-------9-\---r----/9-----333333333333777777777777555555555555555555555555--|
E-------------------------------------000000000000333333333333--------------|
       Guitars 1 and 2
e---------------------------------------------------------------------------|
b---------------------------------------------------------------------------|
g---------------------------------------------------------------------------|
d-555555555555999999999999777777777777777777777777--------------------------|
a-333333333333777777777777555555555555555555555555--------------------------|
E---------------------------------------------------------------------------|
pm________________________________________________

Verse 3:
        Guitar 1
e---------------------------------------------------------------------------|
b---------------------------------------------------------------------------|
g---------------------------------------------------------------------------|
d---------------------------------------------------------------------------|
a-7-(repeat to next note)-5-----:3-----:0-----:555555555555\7/5/2\3---------|
E---------------------------------------------------------------------------|
pm__________________________________________
Interlude:  (clean)
e-0-------------0-----0-----------------------------------------------------|
b-0-------------0-----0-----------------------------------------------------|
g-9---let ring--9-----7-----------------------------------------------------|
d-r-------------9-----7-----------------------------------------------------|
a-r-------------7-----5-----------------------------------------------------|
E-8-------------------------------------------------------------------------|

Map
Intro
Verse 1
Pre-Chorus
Chorus
Fill in
Verse 2
Bridge
Verse 3
Interlude
Bridge
Outro (same as intro)


Hope it works for you.  God Bless!    

Added On December 16th, 2013

SHARE

Comments

blog comments powered by Disqus

ADVERTISEMENT