The Cloud Room Tabs

Hey Now Now

2 versions

TAB

            The Cloud Room: Hey Now Now
Tabbed by: Hariz05 (myspace.com/hariz05)
Tunning: Standard (EADGBe)

[INTRO]
e|----------------------------------|
B|----------------------------------|
G|--0-0-0-0-0-0-0—0-0-0-0-0-0-0-0-0-|
D|-2-2-2-2-2-2-2-2-2-2-2-2-2-2-2-2--|
A|----------------------------------|
E|----------------------------------|

e|-------------------0-0-0-0-0-0-0-0|
B|------------------3-3-3-3-3-3-3-3-|
G|--0-0-0-0-0-0-0-0-----------------|
D|-3-3-3-3-3-3-3-3------------------|
A|----------------------------------|
E|----------------------------------|

[VERSE]

   C                                         E
e|-0-----------------------------------------0--|
B|-1-----------------------------------------0--|
G|-0-----------------------------------------1--|
D|-2-----------------------------------------2--|
A|-3-----------------------------------------2--|
E|----------------------------------------------|
   Hey now now, they'll find you when you're sleeping, now now 

                                         F
e|---------------------------------------0------|
B|---------------------------------------1------|
G|---------------------------------------2------|
D|---------------------------------------3------|
A|---------------------------------------0------|
E|----------------------------------------------|
   They’ll reach in and grab what you're dreaming, now now

                               Dm
e|------------------------------0-0-0-0-0-0-0-0-|
B|-----------------------------3-3-3-3-3-3-3-3--|
G|----------------------------------------------|
D|----------------------------------------------|
A|----------------------------------------------|
E|----------------------------------------------|
   Cut it up and slip it back in, and I know, and I know, and I know it 

   C                                    E
   Hey now now, the smallest things are crushing me now
                               F
   The crush crush crush is so comforting now 

                                  Dm
e|----------------------------------------------|
B|----------------------------------------------|
G|----------------------------------------------|
D|--------------------------------00-00-00-00---|
A|----------------------------------------------|
E|----------------------------------------------|
   Did the earth just slam in the sun, and I know, and I know, and I know it 
  
   E                        Dm
e|----------------------------------------------|
B|----------------------------------------------|
G|-1—-1—-1—-1—-1------------2--2--2—-2—-2-------|
D|-222222222222222----------000000000000000-----|
A|----------------------------------------------|
E|----------------------------------------------|         
   Won’t undo their past by walking and talking backwards 

[CHORUS 1] x2

C
Hey now now, we're goin' down down 
       E
and we ride the bus there and pay the bus fare 
      F
or we find a new reason, a new way of living 
       G
and we breathe it in and try to dream again

*[Repeat INTRO then VERSE]*

[CHORUS 2] x2

C
Hey now now, we're goin' down down 
       E
and we ride the bus there and pay the bus fare 
      F
or we find a new reason, a new way of living 
       G
and we shout it out and try to dream again

[Bridge]
Now Now Now…

*[Repeat CHORUS 1 strum each chord once]*
*[Repeat CHORUS 2 twice]*    

Added On December 16th, 2013

SHARE

Comments

blog comments powered by Disqus

VERSIONS

ADVERTISEMENT