The Devil Wears Prada Tabs

Nickels Is Money Too

2 versions

TAB

            ----------------------------------------------------------------------------
		Nickels Is Money Too - Devil Wears Prada
----------------------------------------------------------------------------
Tabbed by:rockonmetal83
Email:therabbit99999@yahoo.com

Tuning:Drop Dizzle (D A D G B E)


e|---------------------------------|
B|---------------------------------|
G|---------------------------------|
D|---------------------------------|
A|---------------------------------|
D|-000-000-000-000-000-000-000-000-|
P.M... ... ... ... ... ... ... ...


e|----------------------------------------------------|
B|----------------------------------------------------|
G|----------------------------------------------------|
D|----------------------------------------------------|
A|-000-000--00-000-000-0~--000-000-000-0~-------------|
D|-000-000--00-000-000-0~--000-000-000-0~-------------|
P.M... ...  .. ... ... .   ... ... ... .


Guitar 1
e|-------------------------------------------------------|
B|-------------------------------------------------------|
G|-15-1414-12--14-1212-10-7777-------------7777-10101010-|
D|-x--x-x--x---x--x-x--x--xxxx-------------xxxx-x-x-x-x--|
A|-13-1212-10--12-1010-8--5555-000-000-000-5555-8-8-8-8--|
D|-----------------------------000-000-000---------------|
P.M                            ... ... ...


Guitar 2
e|-------------------------------------------|
B|-------------------------------------------|
G|-------------------------------------------|
D|-8-7-5--7-5-3--0000--------------0000-3333-|
A|-8-7-5--7-5-3--0000-000-000-000--0000-3333-|
D|-8-7-5--7-5-3--0000-000-000-000--0000-3333-|
P.M                   ... ... ...



e|----------------|-----|
B|----------------|-----|
G|----------------|-----|
D|----------------|--|
A|-0-00--00-00-00-|--|
D|-0-00--00-00-00-|-----|
P.M. ..  .. .. ..


e|--------------------------|-----------------|
B|--------------------------|-----------------|
G|--------------------------|-----------------|
D|--------------------------|-----------------|
A|-0-00--00-00-00--0-0000-0-|-8p0-7p0-5p0-7p0-|
D|-0-00--00-00-00--0-0000-0-|-----------------|
P.M. ..  .. .. ..  . .... .



e|-------------------------------------------|
B|-------------------------------------------|
G|-------------------------------------------|
D|-------------------------------------------|
A|------8p0-----------8p0----8p0-7p0-5p0-7p0-|
D|-0000-----0000-0000-----00-----------------|
P.M....     .... ....     ..

e|-------------------------------------------|
B|-------------------------------------------|
G|-------------------------------------------|
D|-------------------------------------------|
A|------8p0-----------8p0----8p0-7p0-5p0-7p0-|
D|-5555-----5555-5555-----55-----------------|
P.M....     .... ....     ..

e|-------------------------------------------|
B|-------------------------------------------|
G|-------------------------------------------|
D|-------------------------------------------|
A|------8p0-----------8p0----8p0-7p0-5p0-7p0-|
D|-8888-----8888-8888-----88-----------------|
P.M....     .... ....     ..

e|-------------------------------------------|
B|-------------------------------------------|
G|-------------------------------------------|
D|-------------------------------------------|
A|------7p0-----------7p0----8p0-7p0-5p0-7p0-|
D|-7777-----7777-7777-----77-----------------|
P.M....     .... ....     ..

This section is repeated twice i think,
with the first two parts
not palm muted the second time through.


e|----|
B|----|
G|----|
D|-0~-|
A|-0~-|
D|-0~-|


e|--------|
B|-5---5~-|
G|-8---8~-|
D|--------|
A|---0----|
D|---0----|
P.M  .


e|-----------------------------------------|
B|-----------------------------------------|
G|---14--------14--------------------10/12-|
D|---x---------x---------------------x--x--|
A|-0-12-0----0-12-0--000-000-000-000-8-/10-|
D|-0----0----0----0--000-000-000-000-------|
P.M                  ... ... ... ...


e|-----------|
B|-----------|
G|-141414----|
D|-x-x-x-----|
A|-121212--0-|
D|---------0-|
P.M        .

Guitar 1
e|---------------|
B|---------------|
G|---------------| (Back and forth between these chords)
D|-12121212-8888-| (Sounds KINDA right, suggestions?)
A|-12121212-8888-|
D|-12121212-8888-|


Guitar 2
e|-----------------------|
B|-This------------------|
G|-----Part--------------|
D|---------needs---------|
A|--------------some-----|
D|------------------help-|
BUT
at 2:38... Im not sure if this is keyboard or not but
e|-------------------------------------|
B|-------------------------------------|
G|-14-12-10-12-10-12/14-12-14-15-14-12-|
D|-x--x--x--x--x--x--x--x--x--x--x--x--|
A|-12-10-8--10-8--10/12-10-12-13-12-10-|
D|-------------------------------------|


e|--------------|---|
B|--------------|---|
G|--------------|---|
D|-0-0-0-0------|-1-|
A|-0-0-0-0-//\\-|-1-|
D|-0-0-0-0-//\\-|-1-|
This part consists only of opens, open palm mutes, and that D# chord.
I think you can figure it out.


e|-------------------------------------------------------|
B|-------------------------------------------------------|
G|---------------------------------------10-12-10-9-10-9-|
D|-------------------------------------------------------|
A|-0-00-0-00-0-00-0-00-0-0-0-0-0-00-0-00-----------------|
D|-0-00-0-00-0-00-0-00-0-0-0-0-0-00-0-00-----------------|
P.M  ..   ..   ..   ..   .   .   ..   ..


e|-----------------------------------|
B|-----------------------------------|
G|-------------------10-12-10-9-10-9-|
D|-----------------------------------|
A|-0-0---00-0---0-0------------------|
D|-0-0---00-0---0-0------------------|
P.M. .   .. .   . .

Ahhh.    

Added On December 16th, 2013

SHARE

Comments

blog comments powered by Disqus

VERSIONS

ADVERTISEMENT