The Drums Tabs

If He Likes It Let Him Do It

1 versions

TAB

            e|----2-2-------2-222-------2-2-------2-222--------2-2---------2-222-----|
B|-----------------------------------------------------------------------|
G|0-0------000--------0-0-------000--------------------------------------|
D|------------------------------------------4-4--------4444------------44| 
A|-----------------------------------------------------------------------|
E|-----------------------------------------------------------------------|

e|--2-2--------0-000-----------------------------------------------------|
B|-----------------------------------------------------------------------|
G|-----------------------------and then repeat it:)----------------------|
D|--------222------------------------------------------------------------| 
A|-----------------------------------------------------------------------|
E|-----------------------------------------------------------------------|

For the Chours i would play that:

e|---0---2---3---5---7---9---10---12-----5-2--0--5-2---------------------|
B|-----------------------------------------------------------------------|
G|-----------------------------------------------------------------------|
D|-----------------------------------------------------------------------| 
A|-----------------------------------------------------------------------|
E|-----------------------------------------------------------------------|

hope you like it(:    

Added On December 16th, 2013

SHARE

Comments

blog comments powered by Disqus

ADVERTISEMENT